American Jesus
Bad Religion
Bad ReligionAmerican Jesus Прислать видеоурок
Bad Religion American Jesus
Добавлено: — , Просмотров: 293 (+0)

  Добавить в избранное

"Recipe For Hate"
American Jesus

As you can see I have not indicated rythem what so
ever so you'll have to figure it out yourself.

The intro riff is played several times within the song-
E-------------------------             E-----
B-------------------------             B-----
G------------------------- And ends on G-----
D--------------0----------             D--2--
A-0-0-2-3-2-3---3-2-3-2-0              A-----
E--------------------------            E-----

E---------------------------------------------------
B---------------------------------------------------
G-2-2-2-2-2-2-2-2-5-5-5-5-5-5-5-5-----------------
D-2-2-2-2-2-2-2-2-5-5-5-5-5-5-5-5-3-3-3-3-3-3-3-3
A-0-0-0-0-0-0-0-0-3-3-3-3-3-3-3-3-3-3-3-3-3-3-3-3
E------------------------------------1-1-1-1-1-1-1-1

E-----------------
B-----------------
G-----------------
D-5-5-5-5-5-5-5-5
A-5-5-5-5-5-5-5-5
E-3-3-3-3-3-3-3-3
In the chorus, the rythem is different
E----------------------------------
B----------------------------------
G-2-2-2-2-5-5-5-5-----------------
D-2-2-2-2-5-5-5-5-3-3-3-3-5-5-5-5
A-0-0-0-0-3-3-3-3-3-3-3-3-5-5-5-5
E------------------1-1-1-1-3-3-3-3
It ends on this riff
E-----------------------------------------------
B-----------------------------------------------
G-2-2-2-2-5-5-5-5-7-7-7-7-10-10-10-10-2-2-2-2
D-2-2-2-2-5-5-5-5-7-7-7-7-10-10-10-10-2-2-2-2
A-0-0-0-0-3-3-3-3-5-5-5-5--8--8--8--8-0-0-0-0
E-----------------------------------------------

E---------------------------0-0-0-0-0-0-0-0-0-0-0-0-0
B---------------------------0-0-0-0-0-0-0-0-0-0-0-0-0
G-2-2-2-2------------------2-2-2-2-2-2-2-2-2-2-2-2-2
D-2-2-2-2-5-5-5-5-5-5-5-5-3-3-3-3-3-3-3-3-3-3-3-3-3
A-0-0-0-0-5-5-5-5-5-5-5-5-3-3-3-3-3-3-3-3-3-3-3-3-3
E----------3-3-3-3-3-3-3-3-1-1-1-1-1-1-1-1-1-1-1-1-1

E-0-0-0-0-0-0-0-0-0-0-0-0-0-0-0-0-0-0-0
B-0-0-0-0-0-0-0-0-0-0-0-0-0-0-0-0-0-0-0
G-2-2-2-0-0-0-0-0-0-0-0-0-0-0-0-0-0-0-0
D-3-3-3-2-2-2-2-2-2-2-2-2-2-2-2-2-2-2-2
A-3-3-3-2-2-2-2-2-2-2-2-2-2-2-2-2-2-2-2
E-1-1-1-0-0-0-0-0-0-0-0-0-0-0-0-0-0-0-0
After the second chorus the verse riff is played palm
muted for a few bars. Anyway, that's it!

Ещё песни с аккордами исполнителя/группы «Bad Religion»