Best for you
Bad Religion
Bad ReligionBest for you Прислать видеоурок
Bad Religion Best for you
Добавлено: — , Просмотров: 249 (+0)

  Добавить в избранное

Best for you

I think it s a very simple song but the effect and the drive is cool. Bad
Religion is one of my favourite bands even if they are quite simple to
play. So let s enjoy it:

VERSE + REFRAIN:
|------------------------------------------------------------------------|
|------------------------------------------------------------------------|
|--9-9-9-9--9-9----5*----7*----------------------------------------------|
|--7-7-7-7--7-7----3*----5*----------------------------------------------|
|------------------------------------------------------------------------|
|------------------------------------------------------------------------|
* You can variate the rythmic playing.

BRIDGE or PRE-CHOROUS:
|------------------------------------------------------------------------|
|------------------------------------------------------------------------|
|--9-9-9-9---11-----14---------------------------------------------------|
|--7-7-7-7---9------12---------------------------------------------------|
|------------------------------------------------------------------------|
|------------------------------------------------------------------------|

Ok that s all.

Ещё песни с аккордами исполнителя/группы «Bad Religion»