Baby Blue
Badfinger
BadfingerBaby Blue Прислать видеоурок
Badfinger Baby Blue
Добавлено: — , Просмотров: 396 (+0)

  Добавить в избранное

Baby Blue

Capo on 5th fret
^^^^^^^^^^^^^^^^

intro:        ----------------------------------------------------------------------
--------0-------0--1--0--1--0----------0------------------------------
--------0-------0--0--0--0--0----------0------------------------------
-----0----------0--0--0--0--0-------0----------------0----------------
-----------------------------------------------0--2-----3--2--0-------
--3----------3-------------------3----------3--------------------3----

verse:        |---2--2--2-----2--2--2-----0--0--0----------------------------------
|---3--3--3-----3--3--3-----1--1--1----------------------------------
|---2--2--2-----2--2--2-----0--0--0-----------0-----------0----------
|---0--0--0-----0--0--0-----2--2--2--------2-----2-----0-----0-------
|---------------------------3--3--3-----3-----------2----------------
|--------------------------------------------------------------------

---1--1--1-----0--0--0----------------------------------------------|
---2--2--2-----1--1--1-----------0----------------------------------|
---3--3--3-----0--0--0-----------0----------------------------------|
---3--3--3-----2--2--2--------0-----------------0-------------------|
---------------3--3--3--------------------0--2-----3--2--0----------|
---------------------------3-----------3--------------------3-------|
repeat
--2--2--2--------------------------------0--0--0-----0--0--0--------
--3--3--3--------------------------------1--1--1-----1--1--1--------
--2--2--2--------------2--0--------------2--2--2-----0--0--0--------
--0--0--0-----0--2--4--------4--2--0-----2--2--2-----2--2--2--------
-----------------------------------------0--0--0-----0--0--0--------
--------------------------------------------------------------------

--------------------0--------3--3--
-----------1-----------1-----1--1--
--------0-----0-----------0--0--0--
-----2-----------2-----------2--2--
--3--------------------------------
-----------------------------------

then repeat intro

bridge chords:    --2--2--2--2--0--0--0--0--0--0--0--0---0--0--0--0--
--3--3--3--3--0--0--0--0--0--0--0--0---1--1--1--1--
--4--4--4--4--0--0--0--0--0--0--0--0---2--2--2--2--
--4--4--4--4--2--2--2--2--1--1--1--1---2--2--2--2--
--2--2--2--2--2--2--2--2--2--2--2--2---0--0--0--0--
---------------------------------------------------
                                 *
--0--0--0--0-----1---1-----0--0-----------------------------------------
--1--1--1--1-----1---1-----1--1------------0----------------------------
--0--0--0--0-----2---2-----0--0------------0----------------------------
--2--2--2--2-----3---3-----2--2---------0----------------0--------------
-----------------3---3-----3--3--------------------0--2-----3--2--0-----
--3--3--3--3-----1---1---------------3----------3--------------------3--
repeat, but at * continue to solo

solo rhythm part:
---1--1--1--1--3--3--3--3--
---3--3--1--1--5--5--3--3--
---3--3--2--2--5--5--4--4--
---3--3--3--3--5--5--5--5--
---1--1--3--3--3--3--5--5--
---------1--1--------3--3--
repeat

solo:        ------------------------1-----------------------------------------
---------------------------3--1--3b(5)--3b(5)--3b(5)b3--1---------
--5b(7)--5b(7)b5--3--2-------------------------------------2b(4)--
------------------------------------------------------------------
------------------------------------------------------------------
------------------------------------------------------------------

-------------------------------------------8--10b(12)--10b(12)--
---------------------------------------10-----------------------
--9b(10)--9b(10)--9b(10)b9--7------10---------------------------
-------------------------------10-------------------------------
----------------------------------------------------------------
----------------------------------------------------------------

--10b(12)b10--8--13b(15)---
---------------------------
---------------------------
---------------------------
---------------------------
---------------------------

end rhythm part:--------------------------------------------
-----------0--------------------0-----------
--------0-----0-----0--------0-----0-----0--
-----0-----------0--------0-----------0-----
--------------------------------------------
--3--------------------3--------------------

-----------------------------------------------
-----------1-----------------------------------
--------2-----2-----2--------2-----------0-----
-----2-----------2--------2-----2-----2-----2--
--0--------------------0-----------------------
-----------------------------------3-----------

-----------------------------------------------
--------------------------------1-----------0--
-----------2-----------------0-----0-----0--0--
--------3-----3-----3-----2-----------2-----0--
-----3-----------3-----3-----------------------
--1-----------------------------------------3--

end lead part:    -------------------------------------------
----------------------------8--8--10b(12)--
----------------------7--5-----------------
------------/7--7--5-----------------------
-----/5--3---------------------------------
--1----------------------------------------

Ещё песни с аккордами исполнителя/группы «Badfinger»