Hope
Bauhaus
BauhausHope Прислать видеоурок
Bauhaus Hope
Добавлено: — , Просмотров: 220 (+0)

  Добавить в избранное

Hope

I started playing around with this tonight... I'll give this out to the
list, and see what you think. It's very sketchy and unexact, but here's
what I've got so far.....

-------------------------
-------------------------
-2----2--2/7-7--7/9--9-9- Riff 1 } Repeat 7 times....
-2----2--2/7-7--7/9--9-9-
-0----0--0---0--0----0-0-
-------------------------

------------------------------------
-8--8-8-8-8--8--8-8---7-7-7-----5-5- Riff 2 } Repeat once...
-7--7-7-7-7--7--7-7---6-6-6-----4-4-
-5--5-5-5-5--5--5-5---4-4-4-----2-2-
------------------------------------
------------------------------------

------------------------------
------------------------------ Riff 3 } Repeat once...
-7---7-7-7-7---9-9-9-9-9-9-9--
-7---7-7-7-7---9-9-9-9-9-9-9--
-5---5-5-5-5---7-7-7-7-7-7-7--
------------------------------

Now repeat these riffs with various strum alterations for the rest of the
song....  I'd love to know the actual chords used in the song, if anyone
knows them. This is how I've been playing it, anyway.... Can anyone help
me get this a little more accurate? It sounds a little different than the
record, so I know there has to be something wrong here...

Ещё песни с аккордами исполнителя/группы «Bauhaus»