King Volcano
Bauhaus
BauhausKing Volcano Прислать видеоурок
Bauhaus King Volcano
Добавлено: — , Просмотров: 221 (+0)

  Добавить в избранное

"Burning From the Inside"
King Volcano

Lyrics from Italian Lyric Book.
There are multiple picks of each note so listen to the LP to get it exact.
I just give a few to represent quantity... I write 4444 to represent
fast(not speed) picking of note. All notes are below 10th fret so there
should be no confusion. :)

Riff 1:        e|--------------------------------------------------------
B|--3-3333-2-2222-3-3333--------3-3333-2-2222-------------
G|-----------------------4-4444---------------4-44-3-444--
D|--------------------------------------------------------
A|--------------------------------------------------------
E|--------------------------------------------------------

Riff 2:        e|-----------------------------------------------------
B|-----------------------------------------------------
G|------------------------------------------3-3-3-4-4--
D|-5-5-5--4-4-4--5-555-2-2222-5-5555-4-4444------------
A|-----------------------------------------------------
E|-----------------------------------------------------

Riff 3:        e|-----------------------------------------------------
B|-----------------------------------------------------
G|-----------------------------------------------------
D|-5-5-5--4-4-4--5-555-2-2222-5-5555-4-4444-2-22-0-2---
A|-----------------------------------------------------
E|-----------------------------------------------------

This is the progression of the Riffs:
Riff 1 (x3)   Riff 2 (x2)
Riff 1 (x3)   Riff 3 (x1)  Riff 2 (x1)
It repeats again when finished... (ie repeat ad-nauseum)
After it starts again the lyrics cut in:
Overshadowed by her sister
Pretty girl would scream
King Volcano gave me numbers
King Volcano is clean
Lonely people burn like candles
Only we are clean

Ещё песни с аккордами исполнителя/группы «Bauhaus»