Rose Garden Funeral of Sores
Bauhaus
BauhausRose Garden Funeral of Sores Прислать видеоурок
Bauhaus Rose Garden Funeral of Sores
Добавлено: — , Просмотров: 287 (+0)

  Добавить в избранное

Rose Garden Funeral of Sores

(bass)
(was this originally a John Cale song??)

  1 + 2 + 3 + 4 +
e|----------------|
B|----------------|
G|----------------|
D|----5-5-3-3-----|
A|------------4-5-|
E|3-3-------------|

This is just repeated throughout the song, interspersed with
something like:

  1 + 2 + 3 + 4 +  1 + 2 + 3 + 4 +
e|----x-------x---|----x-----------
B|----x-------x---|----x-----------
G|----x-------x---|----x-----------
D|----x-------x---|----x-----------
A|3---x-------x---|1---x---3---1---
E|----x-------x---|----x-----------

(Where there are a line of x's, I just dampen the strings and
play a quick strum to give an idea of the syncopation)

Ещё песни с аккордами исполнителя/группы «Bauhaus»