Brand New
Beastie Boys
Beastie BoysBrand New Прислать видеоурок
Beastie Boys Brand New
Добавлено: — , Просмотров: 211 (+0)

  Добавить в избранное

Brand New

intro (played most of song)
E|------------------------------------------------------------------
B|------------------------------------------------------------------
G|--5--5--6--6--5--5--5--6--6--5--5--6--6--5--5--4--3--3---
D|--5--5--6--6--5--5--5--6--6--5--5--6--6--5--5--4--3--3---
A|--3--3--4--4--3--3--3--4--4--3--3--4--4-3--3--2--1--1---
E|--3--3--4--4--3--3--3--4--4--3--3--4--4--3--3--2--1--1---
"SABROSA" keep repeating
E|----------------------------------
B|----------------------------------
G|--5--5--X--X--7--7--X--X---
D|--5--5--X--X--7--7--X--X---
A|--3--3--X--X--5--5--X--X---
E|--3--3--X--X--5--5--X--X---
then
E|--
B|--
G|-- I'LL FIGURE THE REST OUT 
D|-- LATER
A|--
E|--

Ещё песни с аккордами исполнителя/группы «Beastie Boys»