Fight for Your Right
Beastie Boys
Beastie BoysFight for Your Right Прислать видеоурок
Beastie Boys Fight for Your Right
Добавлено: — , Просмотров: 392 (+1)

 
Добавить в избранное

From the album Licensed to Ill
Fight for Your Right

Here it is: an all-time classic. I tried to tab it the best I could. First I
give the chords of the different parts (the pm stuff means palm muted). Then
I give the lyrics and some indications of the different parts. Last but not
least is the solo. This is not very accurate, but at least it works. Corrections
are welcome. Thus, the sequence of the different parts is;
Intro
Verse Chorus
Verse Chorus
Bridge
Solo
Verse Chorus Chorus
Bridge
Outro
Have a jolly good time!

Tune down half step

Intro
    (E5) A 
   A C D } 6x 
Verse
   A C D A C D A5 (pm) } 4x 
   A C D A  (TACET) 
Chorus
  A D } 2x 
  A C D } 2x 
Bridge
  A C D 
  E G } 3x 
  E 
Solo
  A C D } 7x 
  A5 (pm) 
Outro
  A C D } 4x 
  A 

*INTRO*
Yeah
Kick it!
You wake up late for school man you don't wanna go
You ask your mum please but she still says "NO!"
You missed two classes have no homework
Your teachers preaches class like it some kind of jerk
You gotta fight
For your right
To party
Your pop caught you smoking and he said "NO WAY!"
That old hypocrite smoke two packs a day
Man, living at home is such a drag
Now, your mum threw away your best porno-mag
You gotta fight
For your right
To party
*BRIDGE*
You gotta fight
*SOLO*
Get out of this house if that's the clothes you gonna wear
I'll kick you out of this house if you don't cut that hair
Your mama busted in and said "What's that noise?"
Oh, mama you're just jealous it's the beastieboys
You gotta fight
For your right
To party
You gotta fight
For your right
To party
*BRIDGE*
PARTY!
PARTY!

Solo:        e--15--15--15b16--15--12------------------------------------------------------
B-------------------------15--14b16--14--15-----------------------------------
G----------------------------------------------------13--13-16b18r16--14------
D--------------------------------------------12--14---------------------------
A-----------------------------------------------------------------------------
E-----------------------------------------------------------------------------

e--16b17--16--14--12b13r12--14--16--17--
B---------------------------------------
G---------------------------------------
D---------------------------------------
A---------------------------------------
E---------------------------------------

Ещё песни с аккордами исполнителя/группы «Beastie Boys»