Graditude
Beastie Boys
Beastie Boys Graditude
Добавлено: — , Просмотров: 271 (+0)

  Добавить в избранное

Graditude

-------------------------------------------------------------------------------
-------------------------------------------------------------------------------
-------------------------------------------------------------------------------
----5--------------------------------------------------------------------------
--7----7--7--0--5--6--7--7-----------------------------------------------------
-------------------------------3-4-5----------repeat---------------------------

------------------------------------------------------------------------------
------------------------------------------------------------------------------
------------------------------------------------------------------------------
-----5-------------------------5--6--7----------------------------------------
--7-----7--7--0--5--6--7---7--------------------------------------------------
------------------------------------------------------------------------------

a gettin' funky..........a geta a gettin' funky...funky

Ещё песни с аккордами исполнителя/группы «Beastie Boys»