Gratitude
Beastie Boys
Beastie BoysGratitude Прислать видеоурок
Beastie Boys Gratitude
Добавлено: — , Просмотров: 250 (+0)

  Добавить в избранное

"Check Your Head"
Gratitude

Listen the the album for timing
w/ distortion (really?) & flange?
Part A
       ___This is the main part____
G-----|----------------------------|---
D-----|--5-------------------------|---
A-5-5-|7---7-7-xx-5-6-7-7-xx-------|---
E-----|----------------------3-4-5-|(3)   x2 bass only, intro
It then does (basically) the same thing two more times except
it ends on the octave (5,6,7 fret D string as opposed to 3,4,5
E string)
Part B
Verse
G-------------------------|     |-------------
D---5---------------------|     |------------
A-7---7-7-xx-5-6-7-7-xx---|     |------------
E-------------------------| x7  |-3-4-5~~~
A x4 (octave last time)
B x7
1:42
G--------------------------
D---5----------------------
A-7---7-7-5-6-7-7----------
E-----------------3-4-5b~p3

G--------------------------------
D---5-------------5-6-7-5---------
A-7---7-7--5-6-7-7---------------
E-------------------------3-4-5-3

G--------------------------------xx-9b
D---5---------------------------------
A-7---7-7--5-6-7-7--------------------
E------------------3p2x4p3x5b~--------

G--------------------------------
D---5-------------5-6-7-5---------
A-7---7-7--5-6-7-7---------------
E-------------------------3-4-5-3
4 bars drums & keys
Main riff w/ improv
P.S. This should all fit on 1 page if you Courier 9 or 10pt.

Ещё песни с аккордами исполнителя/группы «Beastie Boys»