Nervous Assistant
Beastie Boys
Beastie BoysNervous Assistant Прислать видеоурок
Beastie Boys Nervous Assistant
Добавлено: — , Просмотров: 206 (+0)

  Добавить в избранное

Nervous Assistant

intro (play 3x)
E:-------------------------------
B:------------------------------
G:------------------------------
D:------------------------------
A:--3--5--3--5--3--5--8--7--
E:--1--3--1--3--1--3--6--5--
then
E:------------------------------------------------------------------------------
B:------------------------------------------------------------------------------
G:------------------------------------------------------------------------------
D:------------------------------------------------------------------------------
A:-10-10-10-10-10-10-10-10-10-10-10-10-10-10--9--9--9--9--9--9--9--9--9--9--10--
E:--8--8--8--8--8--8--8--8--8--8--8--8--8--8--7--7--7--7--7--7--7--7--7--7--8--
repeat intro, then
E:------------------------------------------------------------------------------
B:------------------------------------------------------------------------------
G:------------------------------------------------------------------------------
D:
A:LATER
E:

Ещё песни с аккордами исполнителя/группы «Beastie Boys»