POW
Beastie Boys
Beastie BoysPOW Прислать видеоурок
Beastie Boys POW
Добавлено: — , Просмотров: 274 (+0)

  Добавить в избранное

POW

This is an Instrumental off of "Check Your Head" and
the instrumental CD called "The in sounds from way out!"
I strongly recomend this CD for any and every musician!

Main Guitar Riff
-7--7--6----7--7--6---7--7--6--7--7--7^6-
-6--6--5----6--6--5---6--6--5--6--6--6^5-
-5--5--4----5--5--4---5--5--4--5--5--5^4-
-----------------------------------------
-----------------------------------------
-----------------------------------------

Bass riff(on guitar)
------------------------------------------------
------------------------------------------------
----------------------------------------7-8-9---
-----7---7-------------------7---7--7-9---------
-7-7---7-----------------7-7---7---7------------
-----------0--0--5-6-7--------------------------

Keyboard riff(on guitar)
----10--12-----------------
-12----------12---12^14-12-
---------------------------
---------------------------
---------------------------
---------------------------

Ещё песни с аккордами исполнителя/группы «Beastie Boys»