Sabrosa
Beastie Boys
Beastie BoysSabrosa Прислать видеоурок
Beastie Boys Sabrosa
Добавлено: — , Просмотров: 210 (+0)

  Добавить в избранное

Sabrosa

step 1.
Intro do a few times 
----------------------/---------------------/
---------------------/---------------------/
--------------------/---------------------/
--5-xxxxx--5-7-5---/----3-xxxxx--5-3-5---/
------------------/---------------------/
-----------------/---------------------/
step 2.
This is the transition you use after the intro and after the bass line going
into step 3.
---------------------/---
--------------------/----
-------------------/-----
------------------/------
--6---5----3-----/-------
----------------/--------
step 3.
------------------------/
-----------------------/
----------------------/
-5-5-5-5-5-5--8--5---/ then back to step 2 then 3 then 2...then bass line..
--------------------/
-------------------/
BASS does this while wah is making harmonic palm mute noises.
----------------------/
--------5------------/
----3^5-----3^5--1--/
--5----------------/
I know it looks like what??? but put the ill communications or the in sounds
from way out cd, and you will see that is it.!!! just a matter of timing
and order.
I hope to see more Beastie intrumentals, Live at P.J.'s, shake your rump,and
mullet head etc...tabs soon

Ещё песни с аккордами исполнителя/группы «Beastie Boys»