Time for Livin'
Beastie Boys
Beastie BoysTime for Livin' Прислать видеоурок
Beastie Boys Time for Livin'
Добавлено: — , Просмотров: 274 (+0)

  Добавить в избранное

Time for Livin'

-------------------------------------------------------------------------------
-------------------------------------------------------------------------------
-------------------------------------------------------------------------------
--------9--9------9-9-9-9------------------------------------------------------
--------7--7------7-7-7-7-----5-5----5-5-5-5-------7-7---7-7-7-7---------------
------------------------------3-3----3-3-3-3-------5-5---5-5-5-5---------------

------------------------------------------------------------------------------
------------------------------------------------------------------------------
------------------------------------------------------------------------------
------------------------------------------------------------------------------
--7-7-7-7-7-7----------------------------------------------------------------
--5-5-5-5-5-5------repeat-----------------------------------------------------

------------------------------------------------------------------------------
------------------------------------------------------------------------------
------------------------------------------------------------------------------
--------------------9---------------------------------------------------------
---7---7-7-7-7---9--7--9-----5--2-2--5--5-5---2-2---5-5----------------------
---5---5-5-5-5---7-----7-----3--0-0--3--3-3---0-0---3-3----------------------
....time for livin'   time for livin'...........
------------------------------------------------------------------------------
------------------------------------------------------------------------------
-------------------------------------------------------------------------------
-------------------------------------------------------------------------------
----5----8----------5-----8----------------------------------------------------
----3----6----------3-----6----------------------------------------------------
--the middle part is the same as the intro only slower.
So long Kurt......you'll be missed.

Ещё песни с аккордами исполнителя/группы «Beastie Boys»