Tough Guy
Beastie Boys
Beastie BoysTough Guy Прислать видеоурок
Beastie Boys Tough Guy
Добавлено: — , Просмотров: 241 (+0)

  Добавить в избранное

"Ill Communication"
Tough Guy

The intro
e------------------------
B------------------------
G-----------------3-3-3-3
D-3-3-3-3-6-6-6-6-3-3-3-3
A-3-3-3-3-6-6-6-6-1-1-1-1
E-1-1-1-1-4-4-4-4--------
Here is the main verse
e---------------------------------------------------
B---------------------------------------------------
G------------------3-3-3-3-------------------3-3-2-2
D--3-3-3-3-6-6-6-6-3-3-3-3---3-3-3-3-6-6-6-6-3-3-2-2
A--3-3-3-3-6-6-6-6-1-1-1-1---3-3-3-3-6-6-6-6-1-1-0-0
E--1-1-1-1-4-4-4-4-----------1-1-1-1-4-4-4-4--------
Play the above two times for verse
The Chorus
e----------------------------------------
B----------------------------------------
G-4-4-4-4-4-4-5-5-5-5-5-5----------------
D-4-4-4-4-4-4-5-5-5-5-5-5-6-6-6-6-6-6-6-6
A-2-2-2-2-2-2-3-3-3-3-3-3-6-6-6-6-6-6-6-6
E-------------------------4-4-4-4-4-4-4-4
And then the bridge
e------
B------
G---8\7
D---8\7
A---6\5
E------
The end of the song is basically the intro at a faster speed.
My tab is not based on any timing.
If you listen to the song you should get the basic idea.

Ещё песни с аккордами исполнителя/группы «Beastie Boys»