Come Together
Beatles
Beatles Come Together
Добавлено: — , Просмотров: 1725 (+292)

 
Добавить в избранное

Come Together
(Lennon/McCartney)

e--------------------------------|
B--------------------------------|
G--------------10----------------|
D-0--0---------10--12------------| thats the first rif for the whole song
A-------10/12--------------------|
E--------------------------------|

now this is the D boogie
e---------------------------
B---------------------------
G---------------------------
D-7--7--9--9----------------  note: all chords are down strums
A-5--5--5--5----------------
E---------------------------

other chords

A  57xxxx
g#  46xxxx i think
g  35xxxx
Bm  7997xx

verse
D  boogie
here come old flat top, he come grooving up slowly,
D  boogie
he got joo joo eyeball, he one Holy roller
       A                        g# 
he got hair down to his knee          ****
G  (strum only once at 1/8 of note)
got to be a joker he just do what he please

****
e--------------|
B--------------|
G--------------|
D--------------| do this right after (hair down to knee) cool
A--7--6--6--5--|
E--5--4--4--3--|

chorus
     Bm              G 
come together, right now, over me

riff

here come old flat top, he come grooving up slowly
he got joo joo eyeball, he one Holy roller
he got hair down to his knee
got to be a joker he just do what he please

riff

he wair no shoe shine he got toe jam football
he got monkey finger he shoot co-ca cola
he say i know you, you know me
one thing i can tell you is you got to be free

chorus

he bag big production he got wal-rus gumboot
he got O-no sideboard he one spinal cracker
he got feet down below his knee
hold you in his armchair you can feel his disease

chorus

he roller coaster he got early warning
he got muddy water he one Mo-jo filter
he say one and one and one is three
got to be good looking cause he so hard to see

chorus

   1/4bend    full bend
e----------------------
B--13b-13-10--13b------
G----------------------
D---------------------- played at end while singing "come together"
A---------------------- at full bend cool
E----------------------

**********************
late chexmix adress atop donations acepeted

p. s its nomal tooning

e aster
B unnys
G et
D runk
A t
E aster  late chexmix

Ещё песни с аккордами исполнителя/группы «Beatles»

 
Последние добавленные подборы