I Will
Beatles
Beatles I Will
Добавлено: — , Просмотров: 1390 (+254)

  Добавить в избранное

"White Album" (1968), "The Beatles"
I Will
(Lennon/McCartney)

I was just stuffing around with my guitar and managed
to come with the melody to "I Will". This is just the
tune of the song, which makes a pretty good piece of
music itself, but it's not the proper tab.

E---------------------------------------------------------
B-------------1-------------------------------------1-----
G-----------------2---------0-----3-------------------2---
D---2---3--------------3-------------------2---3----------
A---------------------------------------------------------
E---------------------------------------------------------
    Who knows how long I've loved you?     You know I love

E---------------------1-------------------------------1---
B------1--------1-------3----------1---------------1------
G----------------------------3-0------2-------------------
D--3---------------------------------------3--------------
A---------------------------------------------------------
E---------------------------------------------------------
         you still.   Will I wait a lonely life time?   If you

E---------------------------------------------------------
B--3------------------------------------------------------
G-------3--0----------------------------------------------
D--------------2-3----------------------------------------
A---------------------------------------------------------
E---------------------------------------------------------
   want me to, I will

You know if I ever saw you,
I didn't catch your name
But it never really mattered,
I will always feel the same

E---------------------------------------------------------
B-------------1-3-----------------------------1---1-------
G-3----2---3-------2--------2---3----2---3-----------2----
D----------------------0--3-------------------------------
A---------------------------------------------------------
E---------------------------------------------------------
     Love you forever and forever, Love you with all my heart

E---------------------------------------------------------
B--------------1-3----------------------------------------
G-3----2---3--------2----------2----0----2---3----3-------
D-------------------------0-3-----------------------------
A---------------------------------------------------------
E---------------------------------------------------------
  Love you whenever we're together, Love you when we're

E--------
B--1-1---
G--------
D--------
A--------
E--------
   a-part

And when at last I find you,
Your song will fill the air
Play it loud so I can hear you,
Make it easy to be near you
For the things you do endear you to me
Ah, you know I will

E----1---------
B--------------
G--------------
D--3-----------
A--------------
E--------------
   I will

E----------------------------------------0--1--3--5---
B-----------1--3-------------------1--3---------------
G--3--2--3--------2--------2----3---------------------
D--------------------0--3-----------------------------
A-----------------------------------------------------
E-----------------------------------------------------
   La la la la la la la la la   La la la la la la la 

Well, that's how I wasted some time, hope someone in the
universe will make use of it! - Now I'll go and get a life

Ещё песни с аккордами исполнителя/группы «Beatles»

 
Последние добавленные подборы