Let it Be
Beatles
Beatles Let it Be
Добавлено: — , Просмотров: 2888 (+153)

 
Добавить в избранное

Let It Be
Let it Be
(Lennon/McCartney)

This is the famous song Let it Be, by the Beatles.
Paul McCartney sang and played bass and piano, and
George did the lead. Ringo did the drums. I don't
know what John played.

VERSE:              C            G            Am           F 
|------------|------------|------------|------------|
|------------|------------|------------|------------|
|------------|------------|------------|------------|
|------------|------------|------------|------------|
|------------|------------|------------|------------|
|------------|------------|------------|------------|

      C            G        F  Em  Dm        C 
|------------|------------|---|---|---|-------------|
|------------|------------|---|---|---|-------------|
|------------|------------|---|---|---|-------------|
|------------|------------|---|---|---|-------------|
|------------|------------|---|---|---|-------------|
|------------|------------|---|---|---|-------------|

CHORUS:              Am          Am/G          F            C 
|------------|------------|------------|------------|
|------------|------------|------------|------------|
|------------|------------|------------|------------|
|------------|------------|------------|------------|
|------------|------------|------------|------------|
|------------|------------|------------|------------|

      C            G        F  Em  Dm        C 
|------------|------------|---|---|---|-------------|
|------------|------------|---|---|---|-------------|
|------------|------------|---|---|---|-------------|
|------------|------------|---|---|---|-------------|
|------------|------------|---|---|---|-------------|
|------------|------------|---|---|---|-------------|

|----5------3--1----0--------------------------|
|----6------5--3----1------3--1--0-------------|
|--------------------------4--2--0-------------|
|--------------------------------------2---0---|
|--------------------------------------3---2---|
|----------------------------------------------|

LEAD:        |----------------------------------------------------------------|
|----------------------------------------------------------------|
|---5----5-------------------------------------5---7b---7br---5--|
|---5h7--5-------------------5--5-----5---5h7--------------------|
|------------7\5---3---3/7---------7-----------------------------|
|----------------------------------------------------------------|

|--------8------------------5------------------------------------|
|---------------------------5------------------------------------|
|--7/9------9\7---5h7---7b-----7br---5---------------------------|
|---------------------------------------7h5---7h5----------------|
|--------------------------------------------------7\5--3h5--3---|
|----------------------------------------------------------------|

|--------------------------------------------------------8--10b--|
|---------------------------8-------8-------8--10--8h10----------|
|--------5--5------5---7/9-----7/9-----7/9-----------------------|
|---5h7---------7------------------------------------------------|
|----------------------------------------------------------------|
|----------------------------------------------------------------|

|--10br---8h10--8----8--15b--------------------------------------|
|------------------------------15br---13--15---15br---13h15--13--|
|----------------------------------------------------------------|
|----------------------------------------------------------------|
|----------------------------------------------------------------|
|----------------------------------------------------------------|

Ещё песни с аккордами исполнителя/группы «Beatles»

 
Последние добавленные подборы