Love Me Do
Beatles
Beatles Love Me Do
Добавлено: — , Просмотров: 879 (+137)

 
Добавить в избранное

Please Please Me (Mar.1963)
Love Me Do
(Lennon/McCartney)

intro        played on harmonica
E--12h13--11h12--9h10-----------------------
B----------------------8-8---8-8-8----------
G-------------------------------------------
D-------------------------------------------
A-------------------------------------------
E-------------------------------------------

E---12h13--13--13--11h12--12--12--9h10---------------
B---------------------------------------8-8---8-8-8--
G----------------------------------------------------
D----------------------------------------------------
A----------------------------------------------------
E----------------------------------------------------

E--12h13--11h12--9h10---------8-7----------------8-7/3--
B----------------------8-8--8-----8-8-8--8-8-8-8--------
G-------------------------------------------------------
D-------------------------------------------------------
A-------------------------------------------------------
E-------------------------------------------------------

G             C 
Love love me do
    G             C 
You know I love you
     G            C 
I'll always be true
            NC 
So pleeeease  love me do

figure 1:    E--12h13--11h12--9h10-----------------------
B----------------------8-8---8-8-8----------
G-------------------------------------------
D-------------------------------------------
A-------------------------------------------
E-------------------------------------------

E---12h13--13--13--11h12--12--12--9h10---------------
B---------------------------------------8-8---8-8-8--
G----------------------------------------------------
D----------------------------------------------------
A----------------------------------------------------
E----------------------------------------------------

G             C 
Love love me do
    G             C 
You know I love you
     G            C 
I'll always be true
            NC 
So pleeeease  love me do

play figure 1 again

   D                  C        G 
   Someone to love    Somebody new
E--5---5---3--2-------3---1-0-----------
B------------------------------3--------
G---------------------------------------
D---------------------------------------
A---------------------------------------
E---------------------------------------

   D                  C            G 
   Someone to love    Someone like you
E--5---5---3--2-------3---1---0---------
B----------------------------------3----
G---------------------------------------
D---------------------------------------
A---------------------------------------
E---------------------------------------

G             C 
Love love me do
    G             C 
You know I love you
     G            C 
I'll always be true
            NC 
So pleeeease  love me do

play figure 1 again

E--5---5---3--2-------3---1-0-----------
B------------------------------3--------
G---------------------------------------
D---------------------------------------
A---------------------------------------
E---------------------------------------

E--5---5---3--2-------3---1---0---------
B----------------------------------3----
G---------------------------------------
D---------------------------------------
A---------------------------------------
E---------------------------------------

E---3--3--3---3-3-3-3--8-7/3---8-8-8---8--
B-----------------------------------------
G-----------------------------------------
D-----------------------------------------
A-----------------------------------------
E-----------------------------------------

G             C 
Love love me do
    G             C 
You know I love you
     G            C 
I'll always be true
            NC 
So pleeeease  love me do

Fade out by playing intro a few times

Chords used:    C   x32010
D   xx0232
G   320033
NC  = no chord

Now that you have mastered that,
try this if you have nothing else to do

E----8--10--12--10--8--10--10-----------
B------------------------------10-------
G---------------------------------------
D---------------------------------------
A---------------------------------------
E---------------------------------------

Ещё песни с аккордами исполнителя/группы «Beatles»

 
Последние добавленные подборы