Money (That's What I Want)
Beatles
Beatles Money (That's What I Want)
Добавлено: — , Просмотров: 708 (+18)

 
Добавить в избранное

From With the Beatles
Money (That's What I Want)
(Berry Gordy, Jr. & Janie Bradford)

E------------------------------------------------------------------------
B-----------------------------------------------------------------------н
G-----------------------------------------------------------------------н
D----0--------0--------4-------5--------6----------4-------------0------н
A-----------------------------------------------------------------------н
E----0--------0--------3-------4--------5----------3-------------0------нн

E------------------------------------------------------------------н
B-------------------------------------------------------------------
G------------------------------------------------------------------
D---4----------0---------4-------6------4-----------0-----------4---
A------------------------------------------------------------------
E---3----------0---------3-------5------3-----------0-----------3--

E--------------------------------------------------------------------
B---------------------------------------------------------------------
G---------------------------------------------------------------------
D---0-----------0----------4----------5---------6--------4--------0---
A---------------------------------------------------------------------
E---0-----------0----------3----------4---------5--------3--------0----

E---------------------------------------------------------------------
B---------------------------------------------------------------------
G---------------------------------------------------------------------
D---4----------0----------4----------6-------4----------0---------4----
A----------------------------------------------------------------------
E---3----------0----------3----------5-------3----------0---------3---

B7 

E---------2-----------2-------------2-----------2---------2----------
B---------4-----------4-------------4-----------4---------4----------
G---------2-----------2-------------2-----------2---------2---------
D---------4-----------4-------------4-----------4---------4---------
A---------2-----------2-------------2-----------2---------2---------
E---------2-----------2-------------2-----------2---------2---------

A7 

E----------0----------------0-----------0-----------0---------0------
B----------2----------------2-----------2-----------2---------2------
G----------0----------------0-----------0-----------0---------0------
D----------2----------------2-----------2-----------2---------2-------
A----------0----------------0-----------0-----------0---------0------
E----------0----------------0-----------0-----------0---------0-------

E-----------------------------------------------------------------
B------------------------------------------------------------------
G------------------------------------------------------------------
D-----0-------0------4----------5--------6----------4-------0-------
A------------------------------------------------------------------
E-----0-------0------3----------4--------5----------3-------0-------

B 

E------------2-----------------2--------------2------------------
B------------2-----------------2--------------2------------------
G------------4-----------------4--------------4------------------
D------------4-----------------4--------------4-----------------
A------------2------------ ----2--------------2-----------------
E------------2-----------------2--------------2------------------

Ещё песни с аккордами исполнителя/группы «Beatles»

 
Последние добавленные подборы