Octopus's Garden
Beatles
Beatles Octopus's Garden
Добавлено: — , Просмотров: 929 (+104)

 
Добавить в избранное

Abbey Road (1969)
Octopus's Garden
(Ringo)

INTRO:        |----------------------------------------------------|
|--------------------12----14\12---------------------|
|---------9h11/13------------------13\11---9---11b---|
|--9h11----------------------------------------------|
|----------------------------------------------------|
|----------------------------------------------------|

|-----------------12---------------------------------|
|---------------------14p12----------------------14--|
|--------9h11/13-------------13\11--9--11-12-13------|
|--9h11--------------------------------11-13-14------|
|----------------------------------------------------|
|----------------------------------------------------|

|----------------------------------------------------|
|----------------------------------------------------|
|--13\11--9--9---11p9--------------------------------|
|----------------------11p9--------------------------|
|----------------------------11p9--7--7--9-----------|
|-------------------------------------------7-7-7-7--|

VERSE:            E                                C#m 
||--0-------------|--0-------------|--4-------------|--4-------------|
||-----------0----|-----------0----|-----------5----|-----------5----|
||-------1--------|-------1--------|-------6--------|-------6--------|
||-----2-------2--|-----2-------2--|-----6-------6--|-----6-------6--|
||--2------2------|--2------2------|--4------4------|--4------4------|
||----------------|----------------|----------------|----------------|

   A                                 B 
|--5-------------|--5-------------|--2-------------|--2-------------||
|-----------5----|-----------5----|-----------4----|-----------4----||
|-------6--------|-------6--------|-------4--------|-------4--------||
|-----7-------7--|-----7-------7--|-----4-------4--|-----4-------4--||
|--7------7------|--7------7------|--2------2------|--2------2------||
|----------------|----------------|----------------|----------------||

The following chords are played during, "I'd ask my friends..."

C#m B A B 
E C#m A B E 

SOLO:        |---------------------14-------------------------------------------|
|-----------12-------------------------------------17--17--17------|
|--11/13--------16b--------16br---14--14----16/18------------------|
|------------------------------------------------------------------|
|------------------------------------------------------------------|
|------------------------------------------------------------------|

|---------------------------------19b--17-17---19b--17-17----------|
|---------17-17-17---------17-17--------------------------17-17----|
|--16/18------------16/18------------------------------------------|
|------------------------------------------------------------------|
|------------------------------------------------------------------|
|------------------------------------------------------------------|

|---------------------------------14-------------------------------|
|--17--17br----------------------------------------------17-17-17--|
|-------------14---------14--16b------16--14--16---16/18-----------|
|-----------------14h16--------------------------------------------|
|------------------------------------------------------------------|
|------------------------------------------------------------------|

|---------------------------------19b--19b--19br--17--17--19--17---|
|---------17-17-17---------17-17-----------------------------------|
|--16/18------------16/18------------------------------------------|
|------------------------------------------------------------------|
|------------------------------------------------------------------|
|------------------------------------------------------------------|

The chords below are played during, "In an octopus's garden with you."

A B C#m 
A B C#m 
A B E 

The riff below is played over that last E  chord.

|---14br--12----------------------------|
|-------------14--12--------------------|
|---------------------13\11--9h11--11b--|
|---------------------------------------|
|---------------------------------------|
|---------------------------------------|

CHORDS:
E : 022100
C#m : 446654
A : 577655
B : 224442

Ещё песни с аккордами исполнителя/группы «Beatles»

 
Последние добавленные подборы