No Monsters In Me
Blur
Blur No Monsters In Me
Добавлено: — , Просмотров: 526 (+106)

  Добавить в избранное

from the single "The Universal"
No Monsters In Me

The head of the Blur Fan Club says that this song sounds like
Faith No More. Not to me it doesn't, it sounds more like Menswear.

Intro (4x):
E -----------------------------
B -----------------------------
G --9^--9-9-9^--9-9^--9-9^--9--
D --7^--7-7-7^--7-7^--7-7^--7--
A -----------------------------
E -----------------------------

Verse:
E -----------------------------------------------
B -----------------------------------------------
G -----------------------------------------------
D --7--7-7-7--7-7--7-7--5\3--3-3-3--3-3--3-3--5--
A -----------------------------------------------
E -----------------------------------------------

E -----------------------------------------------
B -----------------------------------------------
G --/9--9-9-9--9-9--9-9--9\7--7-7-7--7-7--7-7----
D --------------------------------------------6--
A -----------------------------------------------
E -----------------------------------------------
A --2--2---5--     ----------------------   |

Ещё песни с аккордами исполнителя/группы «Blur»

 
Последние добавленные подборы