80
Green Day
Green Day 80
Добавлено: — , Просмотров: 649 (+24)

 
Добавить в избранное

80

Bass tab, normally tuned
here we go kids

Verses 1 2 & 3 (also the intro, between the Bridge and chorus, and end on it)
G-----7----7----7----7
D-5----5----5-----5---
A-----------------------
E-----------------------

G----5----5----5-----5
D-3----3----3----3----
A-----------------------
E-----------------------

G-----5-----5-----5-----5
D-2-----2-----2-----2----
A--------------------------
E--------------------------

G-----3-----3-----3-----3
D-1-----1-----1-----1----
A--------------------------
E--------------------------

Chorus part 1
Its just
D   C    D    C    D    C    D   C  listen to the CD/Tape for the changes.

Chorus Part 2
G---------------------
D---0-2--------------
A---------3-------3-3
E-3----------3-1-----

Bridge
G-----------------------------
D-----------0-0-0-0----------
A-3-3-3-3---------------3---
E--------------------4-4----4
(repeat that then,)
G---------------------------------------------
D-----------0-0-0-0-2-2-2-2----------------
A-3-3-3-3--------------------3-3-3-3-------
E----------------------------------------3-3-3

Ещё песни с аккордами исполнителя/группы «Green Day»

 
Последние добавленные подборы