Christie Road
Green Day
Green Day Christie Road
Добавлено: — , Просмотров: 645 (+0)

  Добавить в избранное

"Kerplunk!"
Christie Road

Tune down 1/2 step

1st verse
Staring out of my Window     Watching the cars go rolling by
Staring out of my Window     Watching the cars go rolling by
------------------------------------------------------------------------------
------------------------------------------------------------------------------
-------------5-------------------------2----------------------------
-5-------------------------2----------------------------
-3-------------------------0----------------------------
My friends are gone     I've got nothing to do
------------------------------------------------------------------------------
-----------------------------------5-----------------5-----------------7------
------------
-5-----------------5-----------------7-------------------3-----------------3--
---------------5--------------------------------------------------------------
------------
Repeat:
So I sit  here Patiently
Watching the clock tick so slowly
Gotta get away
Or my brains will Explode
Chorus:
Give me something to do to kill some time
Take me to thet place that I call home
Take away the strains of being lonley
Take me to the tracks at Christi Road
------------------------------------------------------------------------------
-----------------------------------5--------------------------------7---------
-------------5------------------5-------------7----------------------3--------
----------5-------------5-----------------------------------------3-----------
------------------------
2nd verse
Repeat first verse Guitar part:
See the hills from above
Standing on my beat up car
The sun went down and the night fill the sky
Now I feel like me once again
As the train comes a rollin' in
Smoked my bordom gone
Slapped my brains up sp high
Repeat Chorus:
Ending part:
------------------------------------------------------------------------------
--------------------------------------------------------------5---------------
------------
-5-------------3------------5---------3-----------------5-------------3-------
-----3---------3-----------------3-------------1----------------------1-------
---------
Mother stay out of my way       Of that place we go
We'll alway seem to find our way   To Christi road
------------------------------------------------------------------------------
----------------------------------------4---------------------------4---------
------------
-5----4----3---------------5------4---------3-----------5----2----3-----------
----5------2---------3-----------3---------1---------------3----------------1-
---------
If there's one thing that I need   That makes me feel complete
------------------------------------------------------------------------------
-----------------------------------5-------------------------------5----------
------------
-5---------------3-----5---------5--------3----5--------3---------------3-----
5---------3--------3----5------------------------1-----3------------------1---
-3-------
Why go to christi Road                 It's Home              It's Home
------------------------------------------------------------------------------
-----------------------------------5------------------------------------------
-----5------
-5---------------3-----5---------3---------------5------3---------------3-----
5---------3---------------3----------------------1-----3---------1------------
---------
Repeat 1St end part
Over!
I didn't write out the rythem, Just the cords.

Ещё песни с аккордами исполнителя/группы «Green Day»

 
Последние добавленные подборы