Dominated Love Slave
Green Day
Green Day Dominated Love Slave
Добавлено: — , Просмотров: 717 (+109)

 
Добавить в избранное

"Kerplunk"
Dominated Love Slave

Chords: (You should probably use the powerchords, it is easier that way)
String#    6 54 3 21
            EADGBe
E          022100 or X79980
A          X02220 or 57760X
B         XX4442 or 79980X

E                A 
Verse:        I wanna be your dominated love slave
E                 B 
I wanna be the one who takes the pain
E                A 
You can spank me when I do not behave
E        B    E 
Mack me in the forehead with a chain

A            E 
Chorus:        'Cause I love feelin' dirty
         B             E 
and I love feelin' cheap
A                 E 
And I love it when you hurt me
     B                E 
So drive those staples deep

E                 A 
Verse:        I want you to slap me and call me naughty
E            B 
Put a beltsander into my skin
E            A 
I want to feel pain all over my body
E        B        E 
I can't wait to be punished for my sins

Chorus

Solo:        e ------------------------3-
B ------8---9---9-----2------
G ------9---9---9--------------
D-------9---9---9--------------
A ------7---7---7--------------
E --0--------------0----------
repeat solo riff 3 times then move up a fret, as below:
e ----------------------------4
B---------9---10---10-----3----
G--------10---10---10-----------
D--------10---10---10----------
A---------9----9----9-----------
E-----0----------------0-------
Then final chorus......
I love it when you hurt me
     B                E 
So drive those staples deep

Ещё песни с аккордами исполнителя/группы «Green Day»

 
Последние добавленные подборы