Espionage
Green Day
Green Day Espionage
Добавлено: — , Просмотров: 829 (+89)

  Добавить в избранное

Hitchin' A Ride Import/Single
Espionage

GUITAR - Riff A
E|-----------------|-----------------|
B|-----------------|-----------------|
G|-----------------|-----------------|
D|-----------------|-----------------|
A|---------2-2---1-|-1-1-0---0-------|
E|-0-0-3-3-----3---|-------3---3-2-1-|

BASS - Riff A
G|-----------------|-----------------|
D|-----------------|-----------------|
A|-----------------|-----------------|
E|-0-0-3-3-0-0-3-3-|-0-0-3-3-0-0-3-3-|

GUITAR - Riff B
E|-----------------|-----------------|
B|-----------------|-----------------|
G|-----------------|-----------------|
D|---------2-2---1-|-1-1-0---0-------|
A|-0-0-3-3-----3---|-------3---3-2-1-|
E|-----------------|-----------------|

BASS - Riff B
E|-----------------|-----------------|
B|-----------------|-----------------|
G|-----------------|-----------------|
D|-----------------|-----------------|
A|-0-0-3-3-0-0-3-3-|-0-0-3-3-0-0-3-3-|
E|-----------------|-----------------|

GUITAR - Riff C
E|-----------------|-----------------|-----------------|-----------------|
B|-------4---------|------5----------|-------4---------|-------5---------|
G|-4-----4---4-4-4-|-5----5----5-5-5-|-4-----4---4-4-4-|-5-----5---5-5-5-|
D|-4-----4---4-4-4-|-5----5----5-5-5-|-4-----4---4-4-4-|-5-----5---5-5-5-|
A|-2-----2---2-2-2-|-3----3----3-3-3-|-2-----2---2-2-2-|-3-----3---3-3-3-|
E|-----------------|-----------------|-----------------|-----------------|

E|-----------------|-----------------|-----------------|-----------------|
B|-----------------|-----------------|-----------------|-----------------|
G|-4-----4---------|-4-----4---------|-5-5-5-5-5-5-5-5-|-8-8-8-8-8-8-8-8-|
D|-4-----4---------|-4-----4---------|-5-5-5-5-5-5-5-5-|-8-8-8-8-8-8-8-8-|
A|-2-----2---------|-2-----2---------|-3-3-3-3-3-3-3-3-|-6-6-6-6-6-6-6-6-|
E|-----------------|-----------------|-----------------|-----------------|

BASS - Riff C
G|-----------------|-----------------|-----------------|-----------------|
D|-----------------|-----------------|-----------------|-----------------|
A|-----------------|-------------5---|-----------------|-------------5---|
E|-2-----2---2-0-2-|-3-----3---3---3-|-2-----2---2-0-2-|-3-----3---3---3-|

G|-----------------|-----------------|-----------------|-----------------|
D|-----------------|-----------------|-----------------|-----------------|
A|-----------------|-----------------|-----------------|-----------------|
E|-2-----2---------|-2-----2---------|-3---------------|-6---------------|

Okay, this song is very cool. These are the main riffs. There are plenty of
sites out there where you can listen to a RealAudio of the song, which is
what I transcribed it from, otherwise if you have the Hitchin' single, hell,
you're laughing. Thanks to Franklin Suco for suggesting this song to me and
sending me his original transcription of it. Although lacking a bassline and
some of the notes in the main Guitar Riff it was a great starter, thanks
dude. Enjoy!

Ещё песни с аккордами исполнителя/группы «Green Day»

 
Последние добавленные подборы