I want to be on TV
Green Day
Green Day I want to be on TV
Добавлено: — , Просмотров: 556 (+40)

 
Добавить в избранное

"Geek Stink Breath" (1995)
I want to be on TV

Tune down half a step...
*** Heavy distortion + real fuzzed out sound ***
Riff A:
e|-----------------------------------------------------------------
B|-----------------------------------------------------------------
G|--6r-4--6r-4--6r-4-6----4-4-4-4----------------------------------
D|--6r-4--6r-4--6r-4-6----4-4-4-4----------------------------------
A|--4--4--4--4--4--4-4----2-2-2-2----------------------------------
E|-----------------------------------------------------------------
  r=release
Drums, bass and 2nd guitar kicks in at first time the riff gets repeated.
2nd guitar plays the same riff.
Vocals kick in at 4th time the riff repeats itself.
Riff B:
Play this riff when BJ sings "I wanna be on TV..."
e|-----------------------------------------------------------------
B|-----------------------------------------------------------------
G|--3--3-3-3----5--5-5-5----6--6-6-6----7-7-7--8-8-8---------------
D|--3--3-3-3----5--5-5-5----6--6-6-6----7-7-7--8-8-8---------------
A|--1--1-1-1----3--3-3-3----4--4-4-4----5-5-5--6-6-6---------------
E|-----------------------------------------------------------------
End the song with riff A, but add this last chord:
   C#5 
e|------
B|------
G|--6---
D|--6---
A|--4---
E|------

The lyrics? I couldn't understand much of them, kinda hard if you're not
a native English speaker.
Sorry, but you're on your own for that one...

Ещё песни с аккордами исполнителя/группы «Green Day»

 
Последние добавленные подборы