King For A Day
Green Day
Green Day King For A Day
Добавлено: — , Просмотров: 1246 (+36)

  Добавить в избранное

Nimrod (1997)
King For A Day

TAB Notation:
Throughout this guide, you may find various symbols coinsiding with the
numbers of the TAB. This is a small legend letting you know what they mean.
If you are unfamiliar with how to accomplish the effects with the given
notation, I suggest you look on the web, there's plenty of info somewhere
out there on how to make all of these work to your full benefit.
h  = hammer-on
p  = pull-off
b  = bend
r  = bend release
/  = slide up/down
= natural harmonic
{5} = artifical harmonic
~  = vibrato
tr = trill

As much as I would have loved to include a full transcription of the brass
parts. My it's been months since I've played trumpet and my trumpet-guitar
transcribing abilities are limited, soo.. enjoy another "4 chord wonder" by
Green Day.

Riff A:        E|-----------------|-----------------|
B|-----------------|-----------------|
G|-----------------|-----------------|
D|-9-x-----9-x-----|-6-x-----6-x-----|
A|-7-x-9-x-7-x-9-x-|-4-x-6-x-4-x-6-x-|
E|-----7-x-----7-x-|-----4-x-----4-x-|

Riff B:        E|-----------------|-----------------|
B|-----------------|-----------------|
G|-----------------|-----------------|
D|-7-7-7-7-7-7-7-7-|-9-9-9-9-9-9-9-9-|
A|-7-7-7-7-7-7-7-7-|-9-9-9-9-9-9-9-9-|
E|-5-5-5-5-5-5-5-5-|-7-7-7-7-7-7-7-7-|

Riff C:        E|-----------------|-----------------|
B|-----------------|-----------------|
G|-9-------9-------|-6-6-6-6-6-6-6-6-|
D|-9---9---9---9---|-6-6-6-6-6-6-6-6-|
A|-7---9---7---9---|-4-4-4-4-4-4-4-4-|
E|-----7-------7---|-----------------|

Verse 1 w/ Riff A
Started at the age of 4.
My mother went to the grocery store.
Went sneaking through her bedroom door.
To find something in a size 4.
Bridge w/ Riff B
Sugar and spice and everything nice wasn't made for only girls.
GI Joe in panty hose is making room for the one and only
Chorus w/ Riff A
King for a day, princess by dawn.
King for a day, in a leather thong.
King for a day, princess by dawn.
Post-Chorus w/ Riff C
Just wait 'till all the guys get a load of me.
Verse 2
My daddy threw me in therapy
Bridge
Chorus
Post-Chorus
Interlude w/ Riff A
Bridge
Chorus x2
Post-Chorus x3
Outro w/ Riff A

Ещё песни с аккордами исполнителя/группы «Green Day»

 
Последние добавленные подборы