Paper Lanterns
Green Day
Green Day Paper Lanterns
Добавлено: — , Просмотров: 662 (+0)

  Добавить в избранное

Paper Lanterns

The guitar plays the intro twice, then the bass goes:

G---------------
D---------------
A--------5-5-3-0
E-5--3-3--------

That gets played twice then it goes into the verse:

G-----------------------------------
D-----------------------------------
A-----------------------------------
E-5-5-5-5--3-3-3-3--2-2-2-2--5-5-5-5

G----------------------------
D----------------------------
A-------------------5-5-5-3-0
E-5-5-5-5--3-3-3-3-----------

Play twice then go into the chorus:

G------------------------
D---------2-2-2-2--------
A-5-5-5-5--------------5-
E-----------------5-5-5-5

G----------------------
D---------2-2-2-2------
A-5-5-5-5-----------5-0
E-----------------3----

G--------------
D--------------
A--------------
E-5-5-3-3-3-3/7

Then go back to the first part again. It is also played under Billy
Joe's solo.

Ещё песни с аккордами исполнителя/группы «Green Day»

 
Последние добавленные подборы