Reject
Green Day
Green Day Reject
Добавлено: — , Просмотров: 669 (+1)

  Добавить в избранное

"Nimrod"
Reject

TAB Notation:
Throughout this guide, you may find various symbols coinsiding with the
numbers of the TAB. This is a small legend letting you know what they mean.
If you are unfamiliar with how to accomplish the effects with the given
notation, I suggest you look on the web, there's plenty of info somewhere
out there on how to make all of these work to your full benefit.
h  = hammer-on
p  = pull-off
b  = bend
r  = bend release
/  = slide up/down
= natural harmonic
{5} = artifical harmonic
~  = vibrato
tr = trill

Riff A:        E|-----------------|-----------------|-----------------|-----------------|
B|-----------------|-----------------|-----------------|-----------------|
G|-----------------|-----------------|-----------------|-----------------|
D|-9-9-9-9-9-9-9-9-|-9-9-9-9-9-9-9-9-|-6-6-6-6-6-6-6-6-|-6-6-6-6-6-6-6-6-|
A|-9-9-9-9-9-9-9-9-|-9-9-9-9-9-9-9-9-|-6-6-6-6-6-6-6-6-|-6-6-6-6-6-6-6-6-|
E|-7-7-7-7-7-7-7-7-|-7-7-7-7-7-7-7-7-|-4-4-4-4-4-4-4-4-|-4-4-4-4-4-4-4-4-|

E|-----------------|-----------------|-----------------|-----------------|
B|-----------------|-----------------|-----------------|-----------------|
G|-6-6-6-6-6-6-6-6-|-6-6-6-6-6-6-6-6-|-----------------|-----------------|
D|-6-6-6-6-6-6-6-6-|-6-6-6-6-6-6-6-6-|-4-4-4-4-4-4-4-4-|-4-4-4-4-4-4-4-4-|
A|-4-4-4-4-4-4-4-4-|-4-4-4-4-4-4-4-4-|-4-4-4-4-4-4-4-4-|-4-4-4-4-4-4-4-4-|
E|-----------------|-----------------|-2-2-2-2-2-2-2-2-|-2-2-2-2-2-2-2-2-|

Riff B:        E|-----------------|-----------------|-----------------|-----------------|
B|-----------------|-----------------|-----------------|-----------------|
G|*----------------|-----------------|-4-4-4-4-4-4-4-4-|-4-4-4-4-4-4-4-4*|
D|*2-2-2-2-2-2-2-2-|-5-5-5-5-5-5-5-5-|-4-4-4-4-4-4-4-4-|-4-4-4-4-4-4-4-4*|
A|-2-2-2-2-2-2-2-2-|-5-5-5-5-5-5-5-5-|-2-2-2-2-2-2-2-2-|-2-2-2-2-2-2-2-2-|
E|-0-0-0-0-0-0-0-0-|-3-3-3-3-3-3-3-3-|-----------------|-----------------|

E|-----------------|-----------------|-----------------|-----------------|
B|-----------------|-----------------|-----------------|-----------------|
G|-----------------|-4-4-4-4-4-4-4-4-|-----------------|-----------------|
D|-2-2-2-2-2-2-2-2-|-4-4-4-4-4-4-4-4-|-2-2-2-2-2-2-2-2-|-6-6-6-6-6-6-6-6-|
A|-2-2-2-2-2-2-2-2-|-2-2-2-2-2-2-2-2-|-2-2-2-2-2-2-2-2-|-6-6-6-6-6-6-6-6-|
E|-0-0-0-0-0-0-0-0-|-----------------|-0-0-0-0-0-0-0-0-|-4-4-4-4-4-4-4-4-|
   PM-------------|                    PM-------------|
E|-----------------|-----------------|-----------------|-----------------|
B|-----------------|-----------------|-----------------|-----------------|
G|-----------------|-----------------|-----------------|-----------------|
D|-5-5-5-5-5-5-5-5-|-5-5-5-5-5-5-5-5-|-4-4-4-4-4-4-4-4-|-4-4-4-4-4-4-4-4-|
A|-5-5-5-5-5-5-5-5-|-5-5-5-5-5-5-5-5-|-4-4-4-4-4-4-4-4-|-4-4-4-4-4-4-4-4-|
E|-3-3-3-3-3-3-3-3-|-3-3-3-3-3-3-3-3-|-2-2-2-2-2-2-2-2-|-2-2-2-2-2-2-2-2-|

Riff C:        E|-----------------|-----------------|-----------------|-----------------|
B|-----------------|-----------------|-----------------|-----------------|
G|-------------9---|-----------------|-------------9---|-----------------|
D|-9-9-9-9-9---9---|-9-9-9-9-9---7---|-9-9-9-9-9---9---|-9-9-9-9-9---7---|
A|-9-9-9-9-9---7---|-9-9-9-9-9---7---|-9-9-9-9-9---7---|-9-9-9-9-9---7---|
E|-7-7-7-7-7-------|-7-7-7-7-7---5---|-7-7-7-7-7-------|-7-7-7-7-7---5---|

Riff D:        E|-----------------|-----------------|
B|-----------------|-----------------|
G|-------------4---|-----------------|
D|-2---2-5---5-4---|-----------------|
A|-2---2-5---5-2---|-2-2-2-2---------|
E|-0---0-3---3-----|-----------------|

Verse 1 w/ Riff A
Who the hell are you to tell me what I am and what's my master plan.
What makes you think that it includes you?
Self-righteous wealth
Stop flattering yourself.
Bridge w/ Riff B
So when the smoke clears here I am,
Your reject all-american.
Sucking up your social sect, making you a nervous wreck.
To hell and back and hell again I've gone.
Chorus w/ Riff C
You're not my type. Not my type.
Verse w/ Riff A
What's the difference between you and me?
I do what I want, and you do what you're told.
So listen up, shut the hell up.
It ain't no big deal and I'll see you in hell.
Bridge 1
Chorus x2
Bridge 2 w/ Riff B
So when the smoke clears here I am,
Your reject all-american.
Falling from grace, right on my face.
To hell and back and hell again I've gone.
Outro w/ Riff D

Ещё песни с аккордами исполнителя/группы «Green Day»

 
Последние добавленные подборы