Scattered
Green Day
Green Day Scattered
Добавлено: — , Просмотров: 685 (+91)

 
Добавить в избранное

"Nimrod"
Scattered

TAB Notation:
Throughout this guide, you may find various symbols coinsiding with the
numbers of the TAB. This is a small legend letting you know what they mean.
If you are unfamiliar with how to accomplish the effects with the given
notation, I suggest you look on the web, there's plenty of info somewhere
out there on how to make all of these work to your full benefit.
h  = hammer-on
p  = pull-off
b  = bend
r  = bend release
/  = slide up/down
= natural harmonic
{5} = artifical harmonic
~  = vibrato
tr = trill

Intro Riff:       B5            A5  G#5 E5            B5            A5  G#5 E5 
E|-----------------|-----------------|-----------------|-----------------|G
B|-----------------|-----------------|-----------------|-----------------|U
G|-----------------|-----------------|-----------------|-----------------|I
D|-9---9---9-9-9-7-|---6-2-----2-2-2-|-9---9---9-9-9-7-|---6-2-----2-2-2-|T
A|-9---9---9-9-9-7-|---6-2-----2-2-2-|-9---9---9-9-9-7-|---6-2-----2-2-2-|A
E|-7---7---7-7-7-5-|---4-0-----0-0-0-|-7---7---7-7-7-5-|---4-0-----0-0-0-|R
   B5            A5  G#5 E5            B5 
E|-----------------|-----------------|-----------------|-----------------|G
B|-----------------|-----------------|-----------------|-----------------|U
G|-----------------|-----------------|-----------------|-----------------|I
D|-9---9---9-9-9-7-|---6-2-----2-2-2-|-9---9---9-9-9-9-|-9-9-9-9-9-9-9-9-|T
A|-9---9---9-9-9-7-|---6-2-----2-2-2-|-9---9---9-9-9-9-|-9-9-9-9-9-9-9-9-|A
E|-7---7---7-7-7-5-|---4-0-----0-0-0-|-7---7---7-7-7-7-|-7-7-7-7-7-7-7-7-|R

Verse Riff:       E5                                 G#5 
E|-----------------|-----------------|-----------------|-----------------|G
B|-----------------|-----------------|-----------------|-----------------|U
G|-----------------|-----------------|-----------------|-----------------|I
D|-2-2-2-2-2-2-2-2-|-2-2-2-2-2-2-2-2-|-6-6-6-6-6-6-6-6-|-6-6-6-6-6-6-6-6-|T
A|-2-2-2-2-2-2-2-2-|-2-2-2-2-2-2-2-2-|-6-6-6-6-6-6-6-6-|-6-6-6-6-6-6-6-6-|A
E|-0-0-0-0-0-0-0-0-|-0-0-0-0-0-0-0-0-|-4-4-4-4-4-4-4-4-|-4-4-4-4-4-4-4-4-|R
   A                                   B 
E|-----------------|-----------------|-----------------|-----------------|G
B|-2-------2-----2-|---2-----2-------|-4---4-------4---|-----4---4-4-4-4-|U
G|-2---2-2-2---2-2-|-2-2-2-2-2-2-2-2-|-4---4-4-4-4-4-4-|-4-4-4-4-4-4-4-4-|I
D|-2---2-2-2---2-2-|-2-2-2-2-2-2-2-2-|-4---4-4-4-4-4-4-|-4-4-4-4-4-4-4-4-|T
A|-0---0-0-0---0-0-|-0-0-0-0-0-0-0-0-|-2---2-2-2-2-2-2-|-2-2-2-2-2-2-2-2-|A
E|-----------------|-----------------|-----------------|-----------------|R

Chorus Riff:       C#            E                     B             A 
E|-----------------|-----------------|-----------------|-----------------|G
B|-----------------|-----------------|-----------------|-----------------|U
G|-6---6---6-6-6-9-|---9-9---9-9-9-9-|-4---4---4-4-4-2-|---2-2---2-2-2-2-|I
D|-6---6---6-6-6-9-|---9-9---9-9-9-9-|-4---4---4-4-4-2-|---2-2---2-2-2-2-|T
A|-4---4---4-4-4-7-|---7-7---7-7-7-7-|-2---2---2-2-2-0-|---0-0---0-0-0-0-|A
E|-----------------|-----------------|-----------------|-----------------|R
  F#5            A5                    E5 
E|-----------------|-----------------|-----------------|-----------------|G
B|-----------------|-----------------|-----------------|-----------------|U
G|-----------------|-----------------|-9-9-9-9-9-9-9-9-|-9-9-9-9-9-9-9-9-|I
D|-4---4---4-4-4-7-|---7-7---7-7-7-7-|-9-9-9-9-9-9-9-9-|-9-9-9-9-9-9-9-9-|T
A|-4---4---4-4-4-7-|---7-7---7-7-7-7-|-7-7-7-7-7-7-7-7-|-7-7-7-7-7-7-7-7-|A
E|-2---2---2-2-2-5-|---5-5---5-5-5-5-|-----------------|-----------------|R

Intro w/ Intro Riff
Verse 1 w/ Verse Riff
I've got some scattered pictures lying on my bedroom floor.
Reminds me of the times we shared.
Makes me wish that you were here.
Now it seems I've forgotten my purpose in this life.
All the songs have been erased.
Guess I've learned from my mistakes.
Chorus w/ Chorus Riff
Open the past and present.
Now and we are there.
Story to tell and I am listening.
Open the bast and present.
And the future too.
It's all I've got and I'm giving it up to you.
Verse 2 w/ Verse Riff
Loose ends tied in knots.
Leaving a lump down in my throat.
Gagging on a souvenir.
Lodged to fill another year.
Drag it on and on until my skin is ripped to shreds.
Leaving my self wide open.
Living out a sacrifice.
Chorus
Bridge w/ Intro Riff
If you got no one and I've got no place to go, would it be alright?
Could it be alright?
Verse 1
Chorus

Ещё песни с аккордами исполнителя/группы «Green Day»

 
Последние добавленные подборы