She
Green Day
Green Day She
Добавлено: — , Просмотров: 1049 (+167)

  Добавить в избранное

"Dookie"
She

------------------------------|-----------------------------|
---5----5----5---5---5---5----|-(5)---5---5-----5---5---5---| } repeat 1 time
------------------------------|-----------------------------|
------------------------------|-----------------------------|

.------------------------------|------------------------------|
.---5----5----5---5---5---5----|(5)---5---5----5----5---5-\-7-|
. -----------------------------|------------------------------|
.------------------------------|------------------------------|

-------------------------------|----------------------------------|  -
-------------------------------|----------------------------------|
--5----5-----5--5-----5--------|-(5)--5--5------5---5---5-----0---|
-------------------------------|----------------------------------|

-------------------------------|------------------------------|
-------------------------------|------------------------------|
--3-----3----3--3---------3----|--(3)--3--3----3---3---3---5--|
-------------------------------|------------------------------|

-------------------------------|------------------------------|
--5-------5-------5---5---5---5|--(5)---5---5------5---5---5--|
-------------------------------|------------------------------|
-------------------------------|------------------------------|
this is the basic lines to she, it wasent easy so i hope
you enjoy it i do

Ещё песни с аккордами исполнителя/группы «Green Day»

 
Последние добавленные подборы