Worry Rock
Green Day
Green Day Worry Rock
Добавлено: — , Просмотров: 641 (+18)

 
Добавить в избранное

"Nimrod"
Worry Rock

TAB Notation:
Throughout this guide, you may find various symbols coinsiding with the
numbers of the TAB. This is a small legend letting you know what they mean.
If you are unfamiliar with how to accomplish the effects with the given
notation, I suggest you look on the web, there's plenty of info somewhere
out there on how to make all of these work to your full benefit.
h  = hammer-on
p  = pull-off
b  = bend
r  = bend release
/  = slide up/down
= natural harmonic
{5} = artifical harmonic
~  = vibrato
tr = trill

Verse Riff:       E                 B                 A                 E 
E|-----------------|-----------------|-----------------|-----------------|
B|-----------------|-----------------|-----------------|-----------------|
G|-9-9-9-9-9-9-9-9-|-4-4-4-4-4-4-4-4-|-2-2-2-2-2-2-2-2-|-9-9-9-9-9-9-9-9-|
D|-9-9-9-9-9-9-9-9-|-4-4-4-4-4-4-4-4-|-2-2-2-2-2-2-2-2-|-9-9-9-9-9-9-9-9-|
A|-7-7-7-7-7-7-7-7-|-2-2-2-2-2-2-2-2-|-0-0-0-0-0-0-0-0-|-7-7-7-7-7-7-7-7-|
E|-----------------|-----------------|-----------------|-----------------|
   A                 E5                A                 B 
E|-----------------|-----------------|-----------------|-----------------|
B|-----------------|-----------------|-----------------|-----------------|
G|-2-2-2-2-2-2-2-2-|-----------------|-2-2-2-2-2-2-2-2-|-4-4-4-4-4-4-4-4-|
D|-2-2-2-2-2-2-2-2-|-2-2-2-2-2-2-2-2-|-2-2-2-2-2-2-2-2-|-4-4-4-4-4-4-4-4-|
A|-0-0-0-0-0-0-0-0-|-2-2-2-2-2-2-2-2-|-0-0-0-0-0-0-0-0-|-2-2-2-2-2-2-2-2-|
E|-----------------|-0-0-0-0-0-0-0-0-|-----------------|-----------------|
   E                 B                 A                 E 
E|-----------------|-----------------|-----------------|-----------------|
B|-----------------|-----------------|-----------------|-----------------|
G|-----------------|-4-4-4-4-4-4-4-4-|-2-2-2-2-2-2-2-2-|-----------------|
D|-2-2-2-2-2-2-2-2-|-4-4-4-4-4-4-4-4-|-2-2-2-2-2-2-2-2-|-2-2-2-2-2-2-2-2-|
A|-2-2-2-2-2-2-2-2-|-2-2-2-2-2-2-2-2-|-0-0-0-0-0-0-0-0-|-2-2-2-2-2-2-2-2-|
E|-0-0-0-0-0-0-0-0-|-----------------|-----------------|-0-0-0-0-0-0-0-0-|
   A                 E5                A                 B 
E|-----------------|-----------------|-----------------|-----------------|
B|-----------------|-----------------|-----------------|-----------------|
G|-2-2-2-2-2-2-2-2-|-----------------|-2-2-2-2-2-2-2-2-|-4-4-4-4-4-4-4-4-|
D|-2-2-2-2-2-2-2-2-|-2-2-2-2-2-2-2-2-|-2-2-2-2-2-2-2-2-|-4-4-4-4-4-4-4-4-|
A|-0-0-0-0-0-0-0-0-|-2-2-2-2-2-2-2-2-|-0-0-0-0-0-0-0-0-|-2-2-2-2-2-2-2-2-|
E|-----------------|-0-0-0-0-0-0-0-0-|-----------------|-----------------|
   C#               G#5                A5                E5 
E|-----------------|-----------------|-----------------|-----------------|
B|-----------------|-----------------|-----------------|-----------------|
G|-6-6-6-6-6-6-6-6-|-----------------|-----------------|-----------------|
D|-6-6-6-6-6-6-6-6-|-6-6-6-6-6-6-6-6-|-7-7-7-7-7-7-7-7-|-2-2-2-2-2-2-2-2-|
A|-4-4-4-4-4-4-4-4-|-6-6-6-6-6-6-6-6-|-7-7-7-7-7-7-7-7-|-2-2-2-2-2-2-2-2-|
E|-----------------|-4-4-4-4-4-4-4-4-|-5-5-5-5-5-5-5-5-|-0-0-0-0-0-0-0-0-|
   C#               G#5               F#5                B 
E|-----------------|-----------------|-----------------|-----------------|
B|-----------------|-----------------|-----------------|-----------------|
G|-6-6-6-6-6-6-6-6-|-----------------|-----------------|-4-4-4-4-4-4-4-4-|
D|-6-6-6-6-6-6-6-6-|-6-6-6-6-6-6-6-6-|-4-4-4-4-4-4-4-4-|-4-4-4-4-4-4-4-4-|
A|-4-4-4-4-4-4-4-4-|-6-6-6-6-6-6-6-6-|-4-4-4-4-4-4-4-4-|-2-2-2-2-2-2-2-2-|
E|-----------------|-4-4-4-4-4-4-4-4-|-2-2-2-2-2-2-2-2-|-----------------|
   E                 B                 A                 E 
E|-----------------|-----------------|-----------------|-----------------|
B|-----------------|-----------------|-----------------|-----------------|
G|-----------------|-4-4-4-4-4-4-4-4-|-2-2-2-2-2-2-2-2-|-----------------|
D|-2-2-2-2-2-2-2-2-|-4-4-4-4-4-4-4-4-|-2-2-2-2-2-2-2-2-|-2-2-2-2-2-2-2-2-|
A|-2-2-2-2-2-2-2-2-|-2-2-2-2-2-2-2-2-|-0-0-0-0-0-0-0-0-|-2-2-2-2-2-2-2-2-|
E|-0-0-0-0-0-0-0-0-|-----------------|-----------------|-0-0-0-0-0-0-0-0-|
   A                 E5                A                 Am 
E|-----------------|-----------------|-----------------|-0---------------|
B|-----------------|-----------------|-2---------------|-1---------------|
G|-2-2-2-2-2-2-2-2-|-----------------|-2---------------|-2---------------|
D|-2-2-2-2-2-2-2-2-|-2-2-2-2-2-2-2-2-|-2---------------|-2---------------|
A|-0-0-0-0-0-0-0-0-|-2-2-2-2-2-2-2-2-|-0---------------|-0---------------|
E|-----------------|-0-0-0-0-0-0-0-0-|-----------------|-----------------|

E|-0---------------|-----------------|
B|-0---------------|-----------------|
G|-1---------------|-----------------|
D|-2---------------|-----------------|
A|-2---------------|-----------------|
E|-0---------------|-----------------|

Solo:        E|-----------------|-----------------|-----------------|-----------------|
B|-----------------|-----------------|-----------------|-----------------|
G|-----------------|-----------------|-----------------|-----------------|
D|-----------------|-----------------|-----------------|-----------------|
A|---------0---2---|-----4/6-4---2---|-0---4---2---0---|-2-0-------------|
E|-0-----4---------|-4---------------|-----------------|-----4~~~--------|

E|-----------------|-----------------|-----------------|-----------------|
B|-----------------|-----------------|-----------------|-----------------|
G|-----------------|-----------------|-----------------|-----------------|
D|-----------------|-----------------|-----------------|-----------------|
A|-0---4---2---0---|-2---------------|-0---0---0-------|-----------------|
E|-----------------|-----4---0-------|-------------4---|-4-p-2~------|
*note - this is how I play this part, basically he just moves around
 on the B string with frets 0, 2, 4, 5 and 7*
E|-----------------|-----------------|-----------------|-----------------|
B|-5-5-5-5-5-5-4-4-|-4-4-5-7---5-4-0-|-2-2-2-0-2-2-2-0-|-2-2-4-2---2-0---|
G|-----------------|-----------------|-----------------|-----------------|
D|-----------------|-----------------|-----------------|-----------------|
A|-----------------|-----------------|-----------------|-----------------|
E|-----------------|-----------------|-----------------|-----------------|

E|-----------------|-----------------|-----------------|-5/7-7-5-5-4-4-2-|
B|-2-2-2-0-2-2-2-0-|-2-2-4-2---2-0---|-2-2-4-4-5-5-5-5-|-5/7-7-5-5-4-4-2-|
G|-----------------|-----------------|-----------------|-----------------|
D|-----------------|-----------------|-----------------|-----------------|
A|-----------------|-----------------|-----------------|-----------------|
E|-----------------|-----------------|-----------------|-----------------|

Overdubs:
For the part that kinda goes "do do.. do" with the drums.. overtop of the
C# -G# -A -E  progression, play this:
E|-----4-4-----4---|-----4-4-----4---|-----5-5-----5---|-----0-0-----0---|
B|-----4-4-----4---|-----4-4-----4---|-----5-5-----5---|-----0-0-----0---|
G|-----------------|-----------------|-----------------|-----------------|
D|-----------------|-----------------|-----------------|-----------------|
A|-----------------|-----------------|-----------------|-----------------|
E|-----------------|-----------------|-----------------|-----------------|

Verse 1 w/ Verse Riff
Another sentimental argument, and bitter love.
Fucked without a kiss again and dragged it through the mud.
Yelling at brick walls and punching windows made of stone.
The worry rock has turned to dust, and fallen on our pride.
A knocked down dragged out fight.
Fat lips and open wounds.
Another wasted night, and no one will take the fall.
Where do we go from where?
and what did you do with the directions?
Promise me no dead end streets and I'll guarantee we'll have the road.
Solo
Repeat Verse 1

Ещё песни с аккордами исполнителя/группы «Green Day»

 
Последние добавленные подборы