I Know
Irma
Irma I Know
Прислал: -, Добавлено: 11 March 2014 , Просмотров: 14464 (+2)

 
Добавить в избранное

Capo 2

Intro

E |--0---0---2---2---3---3---5---5--------------------------------------|
B |----0---0---0---0---0---0---5---0-1-----0h1^0-----1^0--4-----4-5-----|
G |--------------------------------------0---------0----------4---------|
D |--2-------1-------0-----------------2---------2----------4-----------|
A |--------------------------4-------0--------------------2-------------|
E |---------------------------------------------------------------------|

INTRO Picking

I'd like to tell you just a word
I am so sorry to disturb
You may be thinking i’m a fool
I heard you tell him you don't care
I heard you thinking loud and clear
Doesn't make me proud of you

I know your time it's precious
But give me just a second
I need to straighten things out with you
You put my hope and dreams away
And there is not a single day
I don't fear the words because of you

CHORUS

      Em            B           C 
And I know ow oh oh oh oh oh oh oh
                     B7 
That is not a dreaaaam
      Em           B           C 
But I saw ow oh oh oh oh oh oh oh
            B7 
Yeah I saw your skin

      Em            B           C 
And I know ow oh oh oh oh oh oh oh
G 
You
  C            B7 
I saw oh oh oh oh 


INTRO Picking 

I wonder if there's a justice
When I look right into your eyes
Those feelings never lie
My only weapon is the song
And you won't have to sing alone
This is the story of my life

CHORUS

      Em            B           C 
And I know ow oh oh oh oh oh oh oh
             B7 
That is not a dreaaaam
      Em           B           C 
But I saw ow oh oh oh oh oh oh oh
            B7 
Yeah I saw your skin

      Em            B           C 
And I know ow oh oh oh oh oh oh oh
G 
You
  C            B7 
I saw oh oh oh oh 

BRIDGE

Em            Am            G#            Am            
I know I know I know I know I know I know I know I know 
Em         Am            G#            Am   
Yes I know I know I know I know I know I know I know 
Em        Am            G#            Am             
COs I saw I saw I saw I saw I saw you I saw you
Em            Am            G#            Am   
Yes I know I know I know I know I know I know I know know

CHORUS

      Em            B           C 
And I know ow oh oh oh oh oh oh oh
                     B7 
That is not a dreaaaam
      Em           B           C 
But I saw ow oh oh oh oh oh oh oh
                    B7 
Yeah I saw your skin

      Em            B           C 
And I know ow oh oh oh oh oh oh oh
G 
You
  C            B7 
I saw oh oh oh oh 
       Em 
Yeah I know


    Em     Am     G# 

E ---7------5------3----|
B ---8------5------3----|
G ---9------7------5----|
D ---9------7------5----|
A ---7------5------3----|
E ---7------5------3----|
 
Последние добавленные подборы