Мама
Louna
Louna Мама
Прислал: Admin, Добавлено: 12 July 2013 , Просмотров: 11296 (+1064)

 
Добавить в избранное

Вступление:

|----------------2-2-2-2-2-2-2-2------------
|------------5-5----------------------------
|------2-2-2--------------------------------
|4-4-4--------------------------------------
|-------------------------------------------
|-------------------------------------------

|----------------2-2-4-4-2-2----------------
|------------5-5--------------5-5-----------
|------2-2-2--------------------------------
|4-4-4--------------------------------------
|-------------------------------------------
|-------------------------------------------

Am 
Мама я прошу, не ругай меня
F                             G 
Если я ложусь спать в начале дня
Я открыла дверь, он в нее вошел
                              G Am 
Жизнь моя теперь - это рок-н-ролл

Am              Am 
Это шок в 15 лет
                F 
Это первый рок-концерт
                      G 
Это слем и губы в кровь
                          Am 
Раз за разом, вновь и вновь

Bm 
Мама я прошу, не ругай меня
G                          A 
Если я ложусь спать в начале дня
Я открыла дверь, он в нее вошел
                    A Bm 
Жизнь моя теперь - это рок-н-ролл



Текст песни.
Припев:
Мама, я прошу, не ругай меня,
Если я ложусь спать в начале дня 
Я открыла дверь, он в неё вошёл,
Жизнь моя теперь – это рок-н-ролл 

Это шок в пятнадцать лет,
Это первый рок концерт,
Это слем и губы в кровь,
Раз за разом вновь и вновь 

Это Хэтфилд и Мастейн,
Это Deftones и Mudvayne,
Это шаг в опасный путь
И назад не повернуть 

Прошу прости меня…
Назад не повернуть!
Теперь вся жизнь моя
Это рок-н-ролл!

Это Летов и Кобейн,
Это лето и портвейн,
Это первое барэ
На гитаре во дворе

Это Beatles и Вудсток,
Это Pistols и панк-рок,
Это то, что нас тогда,
Изменило навсегда!

Прости меня!

Припев 

Я прошу, прости меня!
Это рок-н-ролл!
И знай теперь вся жизнь моя
Это рок-н-ролл!

Это рок-н-ролл!

Я прошу, прости меня!
Это рок-н-ролл!
И знай теперь вся жизнь моя
Это рок-н-ролл!

И я прошу, прости меня!
И знай…

Припев 

Я прошу, прости меня!
Это рок-н-ролл!
И знай теперь вся жизнь моя
Это рок-н-ролл!

Ещё песни с аккордами исполнителя/группы «Louna»

 
Последние добавленные подборы