You drink, you drive, you spill
NOFX
NOFXYou drink, you drive, you spill Прислать видеоурок
NOFX You drink, you drive, you spill
Добавлено: — , Просмотров: 513 (+73)

  Добавить в избранное

You drink, you drive, you spill

e-|-------------------------------------|
B-|-------------------------------------|
G-|---5-7-9-12-14-9-9---5-7-9-12-14-9-9-|
D-|-7-5-7-9-12-14-9-9-7-5-7-9-12-14-9-9-|
A-|-7-3-5-7-10-12-7-7-7-3-5-7-10-12-7-7-|
E-|-5-----------------5-----------------|

verse:        e-|-----------------------------------------------------------------|
B-|-----------------------------------------------------------------|
G-|---------5-5-5-5-------------------------5-5-5-5-----------------|
D-|-7-7-7-7-5-5-5-5-3-3-3-3-5-5-5-5-7-7-7-7-5-5-5-5-3-3-3-3-5-5-5-5-|
A-|-7-7-7-7-3-3-3-3-3-3-3-3-5-5-5-5-7-7-7-7-3-3-3-3-3-3-3-3-5-5-5-5-|
E-|-5-5-5-5---------1-1-1-1-3-3-3-3-5-5-5-5---------1-1-1-1-3-3-3-3-|

chorus:        e-|-----------------------------------------------------
B-|-----------------------------------------------------
G-|-----------------------------------------------------
D-|-3-3-3-5-5-5-7-7-7-7-7-7-7-3-3-3-5-5-5-7-7-7-7-7-7-7-
A-|-3-3-3-5-5-5-7-7-7-7-7-7-7-3-3-3-5-5-5-7-7-7-7-7-7-7-
E-|-1-1-1-3-3-3-5-5-5-5-5-5-5-1-1-1-3-3-3-5-5-5-5-5-5-5-

e-|-------------------------
B-|-------------------------
G-|-------------5-5-5-------
D-|-3-3-3-5-5-5-5-5-5-9-9-9-
A-|-3-3-3-5-5-5-3-3-3-9-9-9-
E-|-1-1-1-3-3-3-------7-7-7-

e-|-----------------------------------------------------
B-|-----------------------------------------------------
G-|-------------5-5-5-5-5-5-5-------------5-5-5-5-5-5-5-
D-|-3-3-3-5-5-5-5-5-5-5-5-5-5-3-3-3-5-5-5-5-5-5-5-5-5-5-
A-|-3-3-3-5-5-5-3-3-3-3-3-3-3-3-3-3-5-5-5-3-3-3-3-3-3-3-
E-|-1-1-1-3-3-3---------------1-1-1-3-3-3---------------

e-|-----------------------------------------------|
B-|-----------------------------------------------|
G-|-------------5-5-5-5-5-5-5-5--5-5-5-5-4-4-4-4--|
D-|-3-3-3-5-5-5-5-5-5-5-5-5-5-5--5-5-5-5-4-4-4-4--|
A-|-3-3-3-5-5-5-3-3-3-3-3-3-3-3--3-3-3-3-2-2-2-2--|
E-|-1-1-1-3-3-3-----------------------------------|

Ещё песни с аккордами исполнителя/группы «NOFX»

 
Последние добавленные подборы