Big Cheese
Nirvana
Nirvana Big Cheese
Добавлено: — , Просмотров: 424 (+0)

  Добавить в избранное

Bleach (1989)
Big Cheese

Verse:        2|------------0--
3|------------0--
4|-10---9-------0
5|-10---9--------
6|-8----7-7-7----
          NH-|
play that 7x then play this:
5|-10--9-9-9----
6|-8---7-7-7-0-0
         PM-|

Chorus:        5|-4--4--4-4--4--4-4-4-4-5--5-0
6|-2--2--2-2--2--2-2-2-2-3--3-0
play 8x then:
3|----0-----------
4|-4----1----0----
5|-2-----------3-0
play that 4x

Solo
2|-12--12-13-13-13-13-10-12\10-10-12-12\10-10--7
3|-11--11-12-12-12-12-9--11\9--9--11-11\9---9--6
4|-9---9--10-10-10-10-7---9\7--7---9--9\7---7--4
play that 3x, then:
2|-12--12-13-13-13-13-10-13-12-13-12-13-12-12-0
3|-11--11-12-12-12-12-9--12-11-12-11-12-11-11-0
4|-9---9--10-10-10-10-7--10--9-10--9-10--9--9--

TABULATURE DEFINITION
What all the little symbols in the tab mean...
)   = Bend
/   = slide
~~  = vibrato
^   = hammeron/pulloff
PM  = Palm mute
*   = uncontrolled feedback
x\x = pick scrape
NH  = Natural Harmonic
+   = Tremelo Pick
)   = Unison Bend
)
@@@@@=Smash Guitar

Ещё песни с аккордами исполнителя/группы «Nirvana»