Breed
Nirvana
Nirvana Breed
Добавлено: — , Просмотров: 565 (+0)

 
Добавить в избранное

Nevermind (1991)
Breed

Intro:                    )
5|-4-4---4-7---
6|-2-2-0-2-5--0
play 8x

Verse:        3|-11-11-11-11-11-11-11-11-11-11-11-11-11-11-11-11-11-11-11-11
4|-11-11-11-11-11-11-11-11-11-11-11-11-11-11-11-11-11-11-11-11
5|--9--9--9--9--9--9--9--9--9--9--9--9--9--9--9--9--9--9--9--9

3|-11-11-11-11-11-11-11---)---
4|-11-11-11-11-11-11-11--9-9-7
5|--9--9--9--9--9--9--9-------

Chorus:        D5 A5 C5 B5 

Solo:        3|-11------11-10-9-7--14-------14-13-12-10---17-------17-16-15-13
4|---------------------------------------------------------------
5|--9-------9--8-7-5--12-------12-11-10--8---15-------15-14-13-11
    +                  +                      +

3|-19-------20----20/-
4|--------------------
5|-17-------18----18/-
    +        +     +

TABULATURE DEFINITION
What all the little symbols in the tab mean...
)   = Bend
/   = slide
~~  = vibrato
^   = hammeron/pulloff
PM  = Palm mute
*   = uncontrolled feedback
x\x = pick scrape
NH  = Natural Harmonic
+   = Tremelo Pick
)   = Unison Bend
)
@@@@@=Smash Guitar

Ещё песни с аккордами исполнителя/группы «Nirvana»