D-7
Nirvana
Nirvana D-7
Добавлено: — , Просмотров: 321 (+1)

 
Добавить в избранное

B-sides and Rarities
D-7

Quiet Part
4|-----2-------0-------2-------0-------2-------0-------2--
5|---2---2---3---3---2---2---3---3---2---2---3---3---2---2
6|-0-------1-------0-------1-------0-------1-------0------

3|---------2--2-x-x-----0-------2-------3------------------
4|-----3---2--2-x-x---3---3---2---2---3---3-2---2-------0--
5|---3---3-0--0-x-x-1-------0-------1-------2-2---2---3---3
6|-1----------------------------------------0-------1------

4|-----2-------0--
5|---2---2---3---3
6|-0-------1------

Loud Part
E5     F5 G5 F5 } 4x 
A5     A#5 B5 A#5 } 2x 
E5     F5 G5 F5 } 2x 

Solo:        1|--)-)-)-----------------)--)--------------
2|-4-----4-----4--3----)-4----------4--3----)~~~
3|------------------0-3--------------------------0-3--------

1|-----------7------------------7-7-7-7-7-7-7-7-77777-77
2|-7/8888888-6-888888-7/8888888-6-6-6-6-6-6-6-6-66666-66
3|-6/7777777---777777-6/7777777-------------------------

1|-7-7-7-7-10
2|-6-6-6-6--9
3|----------+

TABULATURE DEFINITION
What all the little symbols in the tab mean...
)   = Bend
/   = slide
~~  = vibrato
^   = hammeron/pulloff
PM  = Palm mute
*   = uncontrolled feedback
x\x = pick scrape
NH  = Natural Harmonic
+   = Tremelo Pick
)   = Unison Bend
)
@@@@@=Smash Guitar

Ещё песни с аккордами исполнителя/группы «Nirvana»