Dive
Nirvana
Nirvana Dive
Добавлено: — , Просмотров: 482 (+1)

 
Добавить в избранное

Incesticide (1992)
Dive

Intro:        3|--------------------/10-10-10
4|-5-3-5-5--3-5--3-3--/10-10-10
5|-5-3-5-5--3-5--3-3--/8--8--8-
6|-3-1-3-3--1-3--1-1-----------

Verse:        3|--------------------/10-10-10
4|-------3------------/10-10-10
5|--------------------/8--8--8-
6|-3-3-x-----------------------

Chorus: C5 D5 D#5 F5 (8th fr) then intro riff
play this 2x
then intro riff 3x

Solo:                 )(       )(
3|-4--3-4-(4)--2-4-(4)^2--
4|-----------------------3
play that 4x

TABULATURE DEFINITION
What all the little symbols in the tab mean...
)   = Bend
/   = slide
~~  = vibrato
^   = hammeron/pulloff
PM  = Palm mute
*   = uncontrolled feedback
x\x = pick scrape
NH  = Natural Harmonic
+   = Tremelo Pick
)   = Unison Bend
)
@@@@@=Smash Guitar

Ещё песни с аккордами исполнителя/группы «Nirvana»