Endless Nameless
Nirvana
Nirvana Endless Nameless
Добавлено: — , Просмотров: 439 (+0)

  Добавить в избранное

B-sides and Rarities
Endless Nameless

Intro:        3|-0-0-0-0-0-0-0-0
4|-0-0-0-0-0-0-0-0
5|-0-0-0-0-0-0-0-0
6|-0-0-0-0-0-0-0-0
     PM----------|
play 4x then:
                                 )~
1|-----------------------------14)-------14--------------
2|-----------------------------14--------14--------------
3|-----0-0-0-0-------0-0-0-0----------------0-0-0-0-0-0-0
4|-x/x-0-0-0-0---x/x-0-0-0-0----------------0-0-0-0-0-0-0
5|-----0-0-0-0-------0-0-0-0----------------0-0-0-0-0-0-0
6|-----0-0-0-0-------0-0-0-0----------------0-0-0-0-0-0-0
       PM----|       PM----|                PM----------|

     )~                       )~
1|-13)-------13-----------------15)-------15--------------
2|-13--------13-----------------15--------15--------------
3|--------------0-0-0-0-0-0-0----------------0-0-0-0-0-0-0
4|--------------0-0-0-0-0-0-0----------------0-0-0-0-0-0-0
5|--------------0-0-0-0-0-0-0----------------0-0-0-0-0-0-0
6|--------------0-0-0-0-0-0-0----------------0-0-0-0-0-0-0
                PM----------|                PM----------|

     )
1|-16)------------
2|-16-------------

Verse:                     )             )             )             )
1|---------14)-----------12)-----------12)-----------15)
2|---------14------------12------------12------------15-
3|-0-0-0-0-------0-0-0-0-------0-0-0-0-------0-0-0-0----
4|-0-0-0-0-------0-0-0-0-------0-0-0-0-------0-0-0-0----
5|-0-0-0-0-------0-0-0-0-------0-0-0-0-------0-0-0-0----
6|-0-0-0-0-------0-0-0-0-------0-0-0-0-------0-0-0-0----
             )             )             )             )
1|---------13)-----------11)-----------14)-----------14)
2|---------13------------11------------14------------14-
3|-0-0-0-0-------0-0-0-0-------0-0-0-0-------0-0-0-0----
4|-0-0-0-0-------0-0-0-0-------0-0-0-0-------0-0-0-0----
5|-0-0-0-0-------0-0-0-0-------0-0-0-0-------0-0-0-0----
6|-0-0-0-0-------0-0-0-0-------0-0-0-0-------0-0-0-0----

Chorus:        2|----------------------------1--------------------
3|----1----1------1-----1----------1-------1----1--
4|-------------------------------------------------
5|-3-----3---3-2------2---2-3----3----3--2----2---2

Outro:        1|-@--
2|-@--
3|-@-*
4|-@--
5|-@--
6|-@--
(same as RFUS...it's just noise and impossible to tab)

TABULATURE DEFINITION
What all the little symbols in the tab mean...
)   = Bend
/   = slide
~~  = vibrato
^   = hammeron/pulloff
PM  = Palm mute
*   = uncontrolled feedback
x\x = pick scrape
NH  = Natural Harmonic
+   = Tremelo Pick
)   = Unison Bend
)
@@@@@=Smash Guitar

Ещё песни с аккордами исполнителя/группы «Nirvana»