Even In His Youth
Nirvana
Nirvana Even In His Youth
Добавлено: — , Просмотров: 576 (+0)

 
Добавить в избранное

B-sides and Rarities
Even In His Youth

Verse:        C5 G5 G#5 G5 

Chorus:        F5  (8th Fret) C#5 G#5 D#5 

Solo:        2|----------------------3-2-0----
3|-----------1--1~~---1-------1--
4|-------2-4--------4-----------4
5|-2/4-4-------------------------
play that 7x then play
1|----------------)-----3-2-0--
2|-----------1-4-4--4-6-3-----3
3|-------2-4-------------------
4|-2/4-4-----------------------
5|-----------------------------

TABULATURE DEFINITION
What all the little symbols in the tab mean...
)   = Bend
/   = slide
~~  = vibrato
^   = hammeron/pulloff
PM  = Palm mute
*   = uncontrolled feedback
x\x = pick scrape
NH  = Natural Harmonic
+   = Tremelo Pick
)   = Unison Bend
)
@@@@@=Smash Guitar

Ещё песни с аккордами исполнителя/группы «Nirvana»