Heart Shaped Box
Nirvana
Nirvana Heart Shaped Box
Добавлено: — , Просмотров: 566 (+0)

  Добавить в избранное

In Utero (1993)
Heart Shaped Box

Drop D Tuning

Intro/Verse:    3|-----2-------------------------------2----------
4|---2---2------3---------0----0---2-2---2-----3--
5|-0----------3---3-----0----0---0-0---------3---3
6|----------3--------0---------------------3------

4|---3/4-4-4-4-----0
5|-------------3-3--
6|-0----------------

Chorus:        2|------)------)-------------)-
3|-2-2-4------4-------------4--
4|-2-2----3-3---0-0-0-0-0-0----
5|-0-0----3-3---0-0-0-0-0-0----
6|--------3-3---0-0-0-0-0-0----
play that 4x then:
4|-3-3-3-3-3-3-3-3-0--0--0--0
5|-3-3-3-3-3-3-3-3-0--0--0--0
6|-3-3-3-3-3-3-3-3-0--0--0--0

Solo
2|----)(------)(------)--------
3|---8-(8)---6-(6)---5--3------
4|-7-------5-------3------5-4-2

TABULATURE DEFINITION
What all the little symbols in the tab mean...
)   = Bend
/   = slide
~~  = vibrato
^   = hammeron/pulloff
PM  = Palm mute
*   = uncontrolled feedback
x\x = pick scrape
NH  = Natural Harmonic
+   = Tremelo Pick
)   = Unison Bend
)
@@@@@=Smash Guitar

Ещё песни с аккордами исполнителя/группы «Nirvana»