Lake Of Fire
Nirvana
Nirvana Lake Of Fire
Добавлено: — , Просмотров: 344 (+0)

 
Добавить в избранное

Intro/Chorus:
Guitar 1
3|-3--3----------3--3--3--------5--5--5-3--3--3----------3--5--5
4|-5--5--5\3--3--3--5--5--x-x-x-5--5--5-3--5--5--5\3--3--3--5--5
5|-5--5--5\3--3--1--5--5--x-x-x-3--3--3-1--5--5--5\3--3--1--3--3
6|-3--3--3\1--1-----3--3--x-x-x------------3--3--3\1--1---------
Guitar 2                         )( )(
2|------------------------------5-(5)-5-3
3|------------------------------5-(5)-5-3

Guitar 1
3|--------------------------3--
4|-3--3--5--5--5--5-5-5-5-3-3-3
5|-3--3--5--5--5--5-5-5-5-3-1-3
6|-1--1--3--3--3--3-3-3-3-1---1

Guitar 1
(not really this slow...tabbed this way because of Guitar 2's part)
3|------------------------------------
4|-5------------5------------3---3---5
5|-5------------5------------3---3---5
6|-3------------3------------1---1---3
Guitar 2
(very fast)
2|----11--11--11--11--11--11\--6---6/8~
3|-/10--10--10--10--10--10--\5---5--/7~

Verse:        Dm Bb Dm A 
Dm Bb C Dm 

Solo:        1|---------------------------------------------------------------
2|----11--11--11--11--11--11\--6---6/8~----11--11--11--11--11--11
3|-/10--10--10--10--10--10--\5---5--/7~-/10--10--10--10--10--10--
4|---------------------------------------------------------------
5|---------------------------------------------------------------
6|---------------------------------------------------------------

1|---------------3----)-3------------------------------------)--
2|--6---6/8--2/3---3-6----6---------------------------------3)--
3|5---5--/7-----------------5-3-----------------------------3---
4|------------------------------5-3---------------------3-5---5-
5|----------------------------------5-4-3---------3-4-5---------
6|----------------------------------------6-3---6---------------

1|--------------------------------------------------------------3--
2|--------6---6~------------------------------------6----/3---3
3|-0--5/7-----7~--7\5-3---------------------------5/7-----7\-------
4|----------------------5----0-3---3-------------------------------
5|------------------------/5-----5---5-3---------------------------
6|---------------------------------------6-3-3-3-------------------

1|-------------------)-----)----)---------------------------------------
2|-3-7-3------------3)----3)---3)---------------------------------------
3|-------3-5--------3-----3----3----------------------------------------
4|-----------3---5----5-5---5----5-3-----------------------3-----3---4--
5|-----------------------------------5-4-3-----------3-4-5---3^5---3---5
6|-------------3---------------------------6-3---3-6--------------------

TABULATURE DEFINITION
What all the little symbols in the tab mean...
)   = Bend
/   = slide
~~  = vibrato
^   = hammeron/pulloff
PM  = Palm mute
*   = uncontrolled feedback
x\x = pick scrape
NH  = Natural Harmonic
+   = Tremelo Pick
)   = Unison Bend
)
@@@@@=Smash Guitar

Ещё песни с аккордами исполнителя/группы «Nirvana»

 
Последние добавленные подборы