Mexican Seafood
Nirvana
Nirvana Mexican Seafood
Добавлено: — , Просмотров: 365 (+0)

 
Добавить в избранное

Incesticide (1992)
Mexican Seafood

Intro/Chorus:    G#5 F#5 F5 

Verse:        4|-6--x-x-x-x-6-x-x-x-x-6-4-6--x-x-x-x-6-x-x-x-x-6-9
5|-6--x-x-x-x-6-x-x-x-x-6-4-6--x-x-x-x-6-x-x-x-x-6-9
6|-4--x-x-x-x-4-x-x-x-x-4-2-4--x-x-x-x-4-x-x-x-x-4-7

Solo:        3|----10-9-8-13--12-11
4|-6--10-9-8-13--12-11
5|-6---8-7-6-11--10--9
6|-4------------------
play that 4x then
4|-------------------2^1^0---------
5|----------0^1^2----------2^1^0---
6|-0^3^4------------------------3^2
play that 4x

Outro Riff:    6|-5^4^5^4^5^4^3-
play that 8x, then a B5  chord

TABULATURE DEFINITION
What all the little symbols in the tab mean...
)   = Bend
/   = slide
~~  = vibrato
^   = hammeron/pulloff
PM  = Palm mute
*   = uncontrolled feedback
x\x = pick scrape
NH  = Natural Harmonic
+   = Tremelo Pick
)   = Unison Bend
)
@@@@@=Smash Guitar

Ещё песни с аккордами исполнителя/группы «Nirvana»