Milk It
Nirvana
Nirvana Milk It
Добавлено: — , Просмотров: 850 (+142)

  Добавить в избранное

In Utero (1993)
Milk It

Intro:        
Guitar 1
1|-12--------11---5-x-x-x-7----------------------
2|---11-12-10----5---------6-7/9-------8-6/7-----
3|--------9---------------------6-8-5-4-----7/6-8
4|-------------9---------------------------------
5|--------------0--------------------------------
Guitar 2
1|-7--5-------------7-7-7-7/9-6--4-----------10-11-16dontpick
2|---6---7-6-5-4-3-----------8--5-5/0-rake--9----------------
3|--5---6---------4/----------------------------------/x-----
4|-----7------------------------------------------8---/x-----
5|-----------------------------0-----------------------------

Chorus:        2|-------9-9----------------------
3|-------9-9----------------------
4|-------9-9----------------------
5|-8-8-8-7-7-5-5---5-5-5-6-6-2-2-2
6|-6-6-6-----3-3-0-3-3-3-4-4-0-0-0

Bridge:        1|-----------------8----------------3
2|---5-5-----------------------------
3|--------------8-8----------------2-
4|---------------7-------------------
5|-1----3-3--------------------------
6|--0---6--6-6-0----6-6-6-6-6-6-6-0--

1|----------------------3\-
2|-------------------------
3|---------------------2---
4|-------------------------
5|-------------------------
6|-6-6-6-6-6-6-6-0-0-0-----

Verse:        6|-6-6-6-6-6-6-6-6-0-0-0-0-0-

Ещё песни с аккордами исполнителя/группы «Nirvana»

 
Последние добавленные подборы