Paper Cuts
Nirvana
Nirvana Paper Cuts
Добавлено: — , Просмотров: 900 (+144)

 
Добавить в избранное

Bleach (1989)
Paper Cuts

tune down a 1/2 step

Intro:        4|------------------------
5|-2-2-2-2-2-2---2-2-2----
6|-1-1-1-1-1-1-*-1-1-1-x\x
   PM---------|  PM--|

Verse:        Same as intro, except replace pick scrape with this riff
1|--------0-----0
2|------0--------
3|---3-------3---

Chorus:        "The lady I feel maternal love for..."
E5  chord with a variation of the above riff in no particular pattern.
"I say so..."
4|-4-5-5-6-6-7-7-8-9\8-8
5|-4-5-5-6-6-7-7-8-9\8-8
6|-2-3-3-4-4-5-5-6-7\6-6
"Nirvana!"
4|-7\6-6--9\8-8
5|-7\6-6--9\8-8
6|-5\4-4--7\6-6

Post Chorus Riff:
4|-4--4--4--4--4--4--4--4
5|-4--4--4--4--4--4--4--4
6|-2--2--2--2--2--2--2--2
   PM--|    PM--|    PM

TABULATURE DEFINITION
What all the little symbols in the tab mean...
)   = Bend
/   = slide
~~  = vibrato
^   = hammeron/pulloff
PM  = Palm mute
*   = uncontrolled feedback
x\x = pick scrape
NH  = Natural Harmonic
+   = Tremelo Pick
)   = Unison Bend
)
@@@@@=Smash Guitar

Ещё песни с аккордами исполнителя/группы «Nirvana»

 
Последние добавленные подборы