Plateau
Nirvana
Nirvana Plateau
Добавлено: — , Просмотров: 1076 (+0)

 
Добавить в избранное

MTV Unplugged In New York (1994)
"Plateau" - Nirvana with the Meat Puppets
From Nirvana's Unplugged

INTRO - Main riff

--3-------6-------3-------6-------3-------6-------1-----
------------------------------------------------------1-
----------------------------------------------------0---
------0-------0-------0-------0-------0-------0---------
----2-------5-------2-------5-------2-------5-----------
--3-------6-------3-------6-------3-------6-------1-----

Это играют со следующими (подвижными) формами:
G         320x33
Bb        650x66
Fsus2     1xx011
Иногда рифы меняются, играя на самой высокой ноте
на струне 2 (B ) вместо струны 1 (E ). Играя эту песню,
старайтесь обыгрывать E , A  и D  струны.

VERSE - w/ главный риф

PRE-CHORUS - 2/4
--4---------
---------4--
-------0----
------------
------------
--4---------

CHORUS

'Nothing on top but a bucket and a mop and an..

--1/3--------------------------------------------------
--1/3------------------------3---------3---------------
-----------------------------3---------3---------------
------------5---x------------3---------3---------------
------------5---x-----1--------------------------------
---------3-------------------------1-------------------

 ..illustrated book about birds'

---------------3---------------------------------------
---------------3-----------------6---------------------
---------------------------------7---------------------
---------------------------------8---------------------
---5---------------------------------------------------
---3----------------------/6---------------------------

etc.

PRE-OUTRO

--4----------------4---6-----------------6-------------
---------4-------4------------6--------6---------------
-------------------------------------------------------
------0-------0------------0-------0-------------------
----3-------3------------5-------5---------------------
--4--------------------6-------------------------------

OUTRO

        *                                 repeat from *
------------------------------0-----|------------------
--------------0-------2---------1p0-|-----2------------
------2-----2---2---2-------2-------|---2--------------
----2-----2-------0-------0---------|-2----------------
--0-----0---------------3-----------|------------------
------------------------------------|------------------

While the line above is played by a Meat Puppet, Krist plays:

--------0-------------2-------0-----
------------2-----------3-----1-----
--------------2---------------------
----------------2-------------------
------------------------------------
------------------------------------

Ещё песни с аккордами исполнителя/группы «Nirvana»

 
Последние добавленные подборы