Rape Me
Nirvana
Nirvana Rape Me
Добавлено: — , Просмотров: 617 (+0)

  Добавить в избранное

Guitar 1
Do not play precisely. Needs bass.

D#||--x----x----x----x----|---------------------------|
A#||--x----x----x----x----|--2----2-----x---5--5-5----|
F#||--x----x----x----x----|--2----2---2---x-5--5-5-0--|
C#||--x----x----x----x----|--2----2---2---x-5--5-5-0--|
G#||--x----x----x----x----|--0----0---------3--3---0--|
D#||--x----x----x----x----|------------------------0--|

-------0--0-0-----3--3-------|-------------------------0--|
-------0--0-0-0-0-0--0---0-0-|--2----2--2-2-x-x-5--5-5-0--|
--------------0-0-0--0---0-0-|--2----2--2-2---x-5--5-5-0--|
--2----2--------0-0----0-0---|--2----2----2---x-5--5-5-0--|
--2--------------------0-0---|--0----0----------3--3-3-0--|
--0---------------3----0-0---|-------------------------0--|

--0----0---0----3--3-----|-------------------------|-------------------------|
--0----0---0--0-0--0-----|-------2-----------------|-------------------------|
--------------0-0--0-----|-------2-----------0-----|-------2-----------5-----|
--2----2------0-0--0--0--|--2-------------x--0-----|-------2-----------5-----|
--2----2------0-------0--|--0-------0--3--------3--|----------------5--------|
--0----0--------3-----0--|-------------------------|--0-------0--3--------0--|

-------------------------|-------------------------|-------------------------|
-------2-----------5-----|-------------------0-----|-------2-----------5-----|
-------2--------5--5-----|-------2-----------0-----|-------2-----------5-----|
--2-------------5--------|-------2--------0--------|--2-------------5--5-----|
--0-------0--3--------0--|----------------------0--|--0-------0--3--------0--|
-------------------------|--0-------0--3--------0--|----------------------0--|

-------------------------|-------------------------|
-------0-----------0-----|-------2--------5--5-----|
-------2-----------0-----|--2----2--------5--5-----|
-------2--------0--------|--2----2--0--5--5--5-----|
----------------------0--|--0----------3--------0--|
--0-------0--3--------0--|----------------------0--|

--0-------0-0-3--3-3-3-3-3--|---------------------------|
--0-------0-0-0--0-0-0-0-0--|--2----2--x-x-x-x-5--5--0--|
------------0-0--0-0-0-0-0--|--2----2--x-x-x-x-5--5--0--|
--2----2------0--0-0-0-0-0--|--2----2--x-x-x-x-5--5--0--|
--2----2--------------------|--0-------------x-3--3-----|
--0-----------3--3-3-3-3-3--|---------------------------|

--0----0--0-0---3-3--3-----|---------------------------|
--0----0--0-0-0-0-0--0--0--|--2----2--x-x-x-x-5--5--0--|
--------------0-0-0--0--0--|--2----2--x-x-x-x-5--5--0--|
--2----2------0-0-0--0--0--|--2----2--x-x-x-x-5--5--0--|
--2---------------------0--|--0-------------x-3--3-----|
--0-------------3-3--3-----|---------------------------|

--0----0--0-0---3-3--3-----|---------------------------|
--0----0--0-0-0-0-0--0--0--|--2----2--x-x-x-x-5--5--0--|
--------------0-0-0--0--0--|--2----2--x-x-x-x-5--5--0--|
--2----2------0-0-0--0--0--|--2----2--x-x-x-x-5--5--0--|
--2---------------------0--|--0-------------x-3--3-----|
--0-------------3-3--3-----|---------------------------|

--0----0--0-0---3-3--3-----|---------------------------|
--0----0--0-0-0-0-0--0--0--|--2----2--x-x-x-x-5--5--0--|
--------------0-0-0--0--0--|--2----2--x-x-x-x-5--5--0--|
--2----2------0-0-0--0--0--|--2----2--x-x-x-x-5--5--0--|
--2---------------------0--|--0-------------x-3--3-----|
--0-------------3-3--3-----|---------------------------|

--0----0--0-0-3------3-----|--------------------------|
--0----0--0-0-0--0-0-0-----|-----------x-x-x-5--5--0--|
--------------0--0-0-0-----|--2----2---x-x-x-5--5--0--|
--2----2------0--0-0-0--0--|--2----2-----x-x-5--5--0--|
--2---------------------0--|--0----0-------x-3--3-----|
--0-----------3------3-----|--------------------------|

-------0--0-0-----3--------|----------x-x--------------|
--0----0--0-0-0-0-0--0-----|----------x-x-x-x-5--5--0--|
--------------0-0-0--0-----|--2----2--x-x-x-x-5--5--0--|
--2-----------0-0-0--0--0--|--2----2------x-x-5--5--0--|
--2---------------------0--|--0----0--------x-3--3-----|
--0---------------3--------|---------------------------|

-------0--0-0-----3--------|---------------------------|
--0----0--0-0-0-0-0--0-----|----------x-x-x-x-5--5--0--|
--------------0-0-0--0-----|--2----2--x-x-x-x-5--5--0--|
--2-----------0-0-0--0--0--|--2----2--x-x-x-x-5--5--0--|
--2---------------------0--|--0----0--------x-3--3-----|
--0---------------3--------|---------------------------|

--0----0--0-0-----3--3-----|----------x-x--------------|
--0----0--0-0-0-0-0--0-----|----------x-x-x-x-5--5--0--|
--------------0-0-0--0-----|--2----2------x-x-5--5--0--|
--2-----------0-0-0--0--0--|--2----2------x-x-5--5--0--|
--2---------------------0--|--0----0----------3--3--0--|
--0---------------3--3-----|---------------------------|

--0----------3--3--3--3--|---------------------------|
--0----------0--0--0--0--|--2----2--x-x-x-x-5--5--0--|
-------------0--0--0--0--|--2----2--x-x-x-x-5--5--0--|
--2----2--2--0--0--0--0--|--2----2--x-x-x-x-5--5--0--|
--2----2--2--------------|--0-------------x-3--3-----|
--0----0--0--3--3--3--3--|---------------------------|

--0----0--0-0---3-3--3-----|---------------------------|
--0----0--0-0-0-0-0--0--0--|--2----2--x-x-x-x-5--5--0--|
--------------0-0-0--0--0--|--2----2--x-x-x-x-5--5--0--|
--2----2------0-0-0--0--0--|--2----2--x-x-x-x-5--5--0--|
--2---------------------0--|--0-------------x-3--3-----|
--0-------------3-3--3-----|---------------------------|

--0----0--0-0---3-3--3-----|---------------------------|
--0----0--0-0-0-0-0--0--0--|--2----2--x-x-x-x-5--5--0--|
--------------0-0-0--0--0--|--2----2--x-x-x-x-5--5--0--|
--2----2------0-0-0--0--0--|--2----2--x-x-x-x-5--5--0--|
--2---------------------0--|--0-------------x-3--3-----|
--0-------------3-3--3-----|---------------------------|

--0----0--0-0---3-3--3-----|---------------------------|
--0----0--0-0-0-0-0--0--0--|--2----2--x-x-x-x-5--5--0--|
--------------0-0-0--0--0--|--2----2--x-x-x-x-5--5--0--|
--2----2------0-0-0--0--0--|--2----2--x-x-x-x-5--5--0--|
--2---------------------0--|--0-------------x-3--3-----|
--0-------------3-3--3-----|---------------------------|

--0----0--0-0-3------3-----|----------------------------|
--0----0--0-0-0--0-0-0-----|----------------------------|
--------------0--0-0-0-----|--6--6-6-6--6-6-6--6--6-----|
--2----2------0--0-0-0--0--|--6--6-6-6--6-6-6--6--6-----|
--2---------------------0--|--4--4---4------4--4--4-----|
--0-----------3------3-----|-------------------------0--|

-------------------------|--------------------------|-------------------------|
-------------------------|--------------------------|-------------------------|
--2----2-----------------|--6----6--6-6-6--6--6-----|--2----2-----------------|
--2----2-----------------|--6----6--6-6-6--6--6-----|--2----2-----------------|
--0----0-----------------|--4----4------4--4--4-----|--0----0-----------------|
----------0--3--2--1--0--|-----------------------0--|----------0--3--2--1--0--|

--------------------------|-------------------------|--------------------------|
--------------------------|-------------------------|----------6-6-6--6--6-----|
--6----6--6-6-6--6--6-----|--2----2-----------------|--6----6--6-6-6--6--6-----|
--6----6--6-6-6--6--6-----|--2----2-----------------|--6----6--6-6-6--6--6-----|
--4----4------4--4--4-----|--0----0-----------------|--4----4------4--4--4-----|
-----------------------0--|----------0--3--2--1--0--|-----------------------0--|

-------------------------|-------------------------|
-------------------------|-------------------------|
--2----2-----------------|-------------------------|
--2----2-----------------|-------------------------|
--0----0-----------------|--3----3---3-3--3--3--3--|
----------0--3--2--1--0--|--1----1---1-1--1--1--1--|

----------------------------|-----------0--------|------------------|
----------------------------|-----------0--------|------------------|
----------------------------|--------------------|------------------|
----------------------------|--2-----------------|------------------|
--3/5--5--5--5-5-5--5--5/---|--2-----------------|------------------|
--1/3--3--3--3-3-3--3--3/---|--0-----------------|------------------|

---------------------------|-----------------3--3-----|
--2----2--x-x-x-x-5--5--0--|--0----0---x-0-0-0--0-----|
--2----2--x-x-x-x-5--5--0--|-----------x-0-0-0--0--0--|
--2----2------x---5--5--0--|--2----2-------0-0--0--0--|
--0----0----------3-----0--|--2----2---------------0--|
------------------------0--|--0----0---------3--3--0--|

--------------------------|--0----0---------3--3-----|
--2----2---x-x-x-5--5-----|--0----0---0-0-0-0--0-----|
--2----2---x-x-x-5--5--0--|-------------0-0-0--0--0--|
--2----2---x-x-x-5--5--0--|--2----2---------0--0--0--|
--0----0---------3--3--0--|--2----2---------------0--|
-----------------------0--|--0----0---------3--3--0--|

---------------------------|-------0----------3--3-----|
--2----2--x-x-x-x-5--5--0--|--0----0--0-0-0-0-0--0--0--|
--2----2--x-x-x-x-5--5--0--|--------------0-0-0--0--0--|
--2----2------x-x-5--5--0--|--2----2------0-0-0--0--0--|
--0----0----------3--3--0--|--2----2----------------0--|
---------------------------|--0----0----------3-----0--|

--------------------------|--0--------3--3-3-3-3-3--|
--2----2---x-x-x-5--5--0--|--0--------0--0-0-0-0-0--|
--2----2---x-x-x-5--5--0--|-----------0--0-0-0-0-0--|
--2----2---------5--5--0--|--2--------0--0-0-0-0-0--|
--0----0---------3--3--0--|--2----------------------|
-----------------------0--|--0--------3--3-3-3-3-3--|

---------------------------|--0----0--0-0---3-3--3-----|
--2----2--x-x-x-x-5--5--0--|--0----0--0-0-0-0-0--0--0--|
--2----2--x-x-x-x-5--5--0--|--------------0-0-0--0--0--|
--2----2--x-x-x-x-5--5--0--|--2----2------0-0-0--0--0--|
--0-------------x-3--3-----|--2---------------------0--|
---------------------------|--0-------------3-3--3-----|

---------------------------|--0----0--0-0---3-3--3-----|
--2----2--x-x-x-x-5--5--0--|--0----0--0-0-0-0-0--0--0--|
--2----2--x-x-x-x-5--5--0--|--------------0-0-0--0--0--|
--2----2--x-x-x-x-5--5--0--|--2----2------0-0-0--0--0--|
--0-------------x-3--3-----|--2---------------------0--|
---------------------------|--0-------------3-3--3-----|

---------------------------|--0----0--0-0---3-3--3-----|
--2----2--x-x-x-x-5--5--0--|--0----0--0-0-0-0-0--0--0--|
--2----2--x-x-x-x-5--5--0--|--------------0-0-0--0--0--|
--2----2--x-x-x-x-5--5--0--|--2----2------0-0-0--0--0--|
--0-------------x-3--3-----|--2---------------------0--|
---------------------------|--0-------------3-3--3-----|

---------------------------|--0----0--0-0-3------3-----|
--2----2--x-x-x-x-5--5--0--|--0----0--0-0-0--0-0-0-----|
--2----2--x-x-x-x-5--5--0--|--------------0--0-0-0-----|
--2----2--x-x-x-x-5--5--0--|--2----2------0--0-0-0--0--|
--0-------------x-3--3-----|--2---------------------0--|
---------------------------|--0-----------3------3-----|

                                                         2x
|-----------------------------|-------------3--3--3--3---||
|---------------5-5-5--5--x-x-|-------------0--0--0--0---||
|*--2----2--x-x-5-5-5--5--x-x-|-------------0--0--0--0--*||
|*--2----2--x-x-5-5-5--5--x-x-|--2----2--x--0--0--0--0--*||
|---0----0--x-x-3-3-3--3--x-x-|--2----2--x---------------||
|-----------------------------|--0----0--x--3--3--3--3---||

----------------------------|-------------3--3--3--3--|-------------------|
--------------5-5-5--5--x-x-|-------------0--0--0--0--|-------------------|
--2----2--x-x-5-5-5--5--x-x-|-------------0--0--0--0--|--2----------------|
--2----2--x-x-5-5-5--5--x-x-|--2----2--x--0--0--0--0--|--2----------------|
--0----0--x-x-3-3-3--3--x-x-|--2----2--x--------------|--0----------------|
----------------------------|--0----0--x--3--3--3--3--|-------------------|

-------------------|-------------------|------------------|---------Дальше обрыв файла

Ещё песни с аккордами исполнителя/группы «Nirvana»