Smells Like Teen Spirit
Nirvana
NirvanaSmells Like Teen Spirit
Nirvana Smells Like Teen Spirit
Добавлено: — , Просмотров: 1385 (+1)

 
Добавить в избранное

Nevermind (1991)
Smells Like Teen Spirit

Intro/Chorus:    F5 A#5 G#5 C#5 

Verse:        1|---1-
2|-1---

Pre-Chorus:    1|-----1-1----1-1----1-1----1-1
2|-1-------1------1------1-----

Post-Chorus:                    )
3|-------------3--5-5-x-5-3---
4|-3-3-x-3-4-4----5-5-x-5-3--6
5|-3-3-x-3-4-4----3-3-x-3-1--6
6|-1-1-x-1-2-2---------------4

Solo:                           )
3|----8-10\-----8-8--8-6-5--6-5-----------)(------
4|-10-------/6------------------8-6--6-8-8-(8)-6-5
repeat that 2x then play:
4|-6-5--6-5--6-5-6^5-5\3-
repeat that 3x then play:
4|-6-5--6-5--6-5-6^5-3(let feedback ring through verse)

TABULATURE DEFINITION
What all the little symbols in the tab mean...
)   = Bend
/   = slide
~~  = vibrato
^   = hammeron/pulloff
PM  = Palm mute
*   = uncontrolled feedback
x\x = pick scrape
NH  = Natural Harmonic
+   = Tremelo Pick
)   = Unison Bend
)
@@@@@=Smash Guitar

Ещё песни с аккордами исполнителя/группы «Nirvana»